Dedadad

Solo disponible en BuenasTareas
  • Páginas : 3 (547 palabras )
  • Descarga(s) : 0
  • Publicado : 27 de febrero de 2012
Leer documento completo
Vista previa del texto
Día Uno 

Lo primero es saber todas las notas que están incluidas en la escala, la escala menor es A-B-C-D-E-F-G. Entonces, empezamos con la nota más grave que encontremos en la cuerda de E, enesa escala. Aquí es E, que significa la cuerda E sola. Después continuamos usando las notas de esa escala, tocando 3 notas por cuerda, excepto la cuerda G, donde solo tenemos 2 notas. Entonces, elpatrón para el primer día será de esta manera: 

E |-----------------------------0-1-3-| 
B |-----------------------0-1-3-------| 
G |-------------------0-2-------------| 
D|-------------0-2-3-----------------| 
A |-------0-2-3-----------------------| 
E |-0-1-3-----------------------------| 

Toca ese patrón de arriba hacia abajo y de abajo hacia arriba hasta que lo memorices,después improvisa por 10-15 minutos usando sólo las notas en ese patrón, recuerda también hacer este patrón en una octava más aguda empezando del traste 12. 

Día Dos 

Empieza improvisando unpoco con el patrón de ayer para que no lo olvides. Hoy vamos a empezar con la última nota del patrón de ayer en la cuerda de E, en este caso, es la nota G (traste 3). Entonces creamos un patrón de lamisma manera que ayer, pero empezando con la nota G. El patrón será así: 

E |-----------------------------3-5-7-| 
B |-----------------------3-5-6-------| 
G|-------------------4-5-------------| 
D |-------------3-5-7-----------------| 
A |-------3-5-7-----------------------| 
E |-3-5-7-----------------------------| 

Hacemos lo mismo que ayer; primero memorizar y despuésimprovisar. Recuerda, ambas octavas. 

Día Tres 

Otra vez empieza tocando lo que haz aprendido los otros dos días y asegúrate que no olvidarlo. 

Ahora hacemos lo mismo que ayer empezando con laúltima nota de la cuerda E, esta vez sería el traste 7 en la cuerda E, la nota B. Entonces haz un patrón partiendo de la nota B, como antes. 

E |---------------------------------7-8-10-| 
B...
tracking img