Demolition lovers

Solo disponible en BuenasTareas
  • Páginas : 18 (4350 palabras )
  • Descarga(s) : 6
  • Publicado : 12 de julio de 2010
Leer documento completo
Vista previa del texto
Demolition Lovers

My Chemical Romance
Lead Guitar 1

E E E E E E E S S E E E E E E E E E E E E E E E E E E E E E E E E E E E E E E E S S
E||----------------------------|--------------------------|--------------------------|--------------------------|----------------------------|B||----------------------------|--------------------------|--------------------------|--------------------------|----------------------------|
G||--------0-----------0-------|--------0-----------0-----|--------------------------|--5--5--5--5--4--4--4--4--|--------0-----------0-------|
D||-----1-----1-----1----------|-----6-----6-----6-----6--|--------0-----------0-----|--5--5--5--5--5--5--5--5--|-----1-----1-----1----------|A||--3-----------3--------3-Ls-|--8-----------8-----------|-----3-----3-----3-----3--|--5--5--5--5--5--5--5--5--|--3-----------3--------3-Ls-|
E||----------------------------|--------------------------|--4-----------4-----------|--3--3--3--3--3--3--3--3--|----------------------------|

E E E E E E E E E E E E E E E E E E E E E E E E E E E E E E E S S E E EE E E E E E E E E E E E E
--------------------------|--------------------------|--------------------------|----------------------------|--------------------------|--------------------------|
--------------------------|--------------------------|--------------------------|----------------------------|--------------------------|--------------------------|--------0-----------0-----|--------------------------|--5--5--5--5--4--4--4--4--|--------0-----------0-------|--------0-----------0-----|--------------------------|
-----6-----6-----6-----6--|--------0-----------0-----|--5--5--5--5--5--5--5--5--|-----1-----1-----1----------|-----6-----6-----6-----6--|--------0-----------0-----|--8-----------8-----------|-----3-----3-----3-----3--|--5--5--5--5--5--5--5--5--|--3-----------3--------3-Ls-|--8-----------8-----------|-----3-----3-----3-----3--|
--------------------------|--4-----------4-----------|--3--3--3--3--3--3--3--3--|----------------------------|--------------------------|--4-----------4-----------|

E E E E E E E E E E E E E E E S S E E E E E E E E E E E E E E E E E E E E E E E E E E EE E E E E
--------------------------|----------------------------|--------------------------|--------------------------|--------------------------|--------------------------|
--------------------------|----------------------------|--------------------------|--------------------------|--------------------------|--------------------------|--5--5--5--5--4--4--4--4--|--------0-----------0-------|--------0-----------0-----|--------------------------|--5--5--5--5--4--4--4--4--|--5--5--5--5--5--5--5--5--|
--5--5--5--5--5--5--5--5--|-----1-----1-----1----------|-----6-----6-----6-----6--|--------0-----------0-----|--5--5--5--5--5--5--5--5--|--------------------------|--5--5--5--5--5--5--5--5--|--3-----------3--------3-Ls-|--8-----------8-----------|-----3-----3-----3-----3--|--5--5--5--5--5--5--5--5--|--3--3--3--3--3--3--3--3--|
--3--3--3--3--3--3--3--3--|----------------------------|--------------------------|--4-----------4-----------|--3--3--3--3--3--3--3--3--|--------------------------|

E E E E E E E E E E E E E E E E E E E E E E E E E E E E E E E E E E E E E E E E--------------------------|--------------------------|------------------------------|--------------------------|--------------------------|
--------------------------|--------------------------|------------------------------|--------------------------|--------------------------|
--7--7--7--7--7--7--7--7--|--7--7--7--7--7--7--7--7--|--8--8--8--8--10--10--10--10--|--5--5--5--5--5--5--5--5--|--8--8--8--8--8--8--8--8--|...
tracking img