Derechos

Solo disponible en BuenasTareas
  • Páginas : 6 (1495 palabras )
  • Descarga(s) : 0
  • Publicado : 27 de octubre de 2010
Leer documento completo
Vista previa del texto
La chispa adecuada
Intro:
e|---------------------------------------------------------|
B|---------------------------------------------------------|
G|------------10---9---------9h10-9------------------5---5-|
D|----------0----0---10---10--------10-------8---10--5---5-|
A|----------------------0--------------0---8---8-------8---|E|-8-8/10-10-----------------------------6-----------------|

e|---------------------------------------------------------|
B|----------------------------10---------------------------|
G|------------10---9-------------9------------------10-10--|
D|----------0----0---10--10--------10-------8---10--10-----|
A|----------------------0-------------0---8---8-----8------|
E|-8-8/10-10----------------------------6------------------|e|---------------------------------------------------------|
B|---------------------------------------------------------|
G|------------10---9---------9h10-9------------------5---5-|
D|----------0----0---10---10--------10-------8---10--5---5-|
A|----------------------0--------------0---8---8-------8---|
E|-8-8/10-10-----------------------------6-----------------|e|--------------------------------------------------------------------|
B|----------------------------10--------------------------------------|
G|------------10---9-------------9------------------10-10-9-----------|
D|----------0----0---10--10--------10-------8---10--10------10-7p0-0--|
A|----------------------0-------------0----8---8----8-----------------|
E|-8-8/10-10----------------------------6-----------------------------|Verso 1
Las palabras...
e|------------------------------------------------|
B|------------------------------------------------|
G|---10---9---------9h10-9------------------5---5-|
D|-0----0---10---10--------10-------8---10--5---5-|
A|-------------0--------------0---8---8-------8---|
E|------------------------------6-----------------|

Cuando aun te espero....e|---------------------------------------------------------|
B|----------------------------10---------------------------|
G|------------10---9-------------9------------------10-10--|
D|----------0----0---10--10--------10-------8---10--10-----|
A|----------------------0-------------0---8---8-----8------|
E|-8-8/10-10----------------------------6------------------|

En un ataúd...e|---------------------------------------------------------|
B|---------------------------------------------------------|
G|------------10---9---------9h10-9------------------5---5-|
D|----------0----0---10---10--------10-------8---10--5---5-|
A|----------------------0--------------0---8---8-------8---|
E|-8-8/10-10-----------------------------6-----------------|

Con tu pelo...e|---------------------------------------------------------|
B|----------------------------10---------------------------|
G|------------10---9-------------9------------------10~----|
D|----------0----0---10--10--------10-------8---10--10~----|
A|----------------------0-------------0---8---8-----8~-----|
E|-8-8/10-10----------------------------6------------------|
Estribillo (sin letra)e|-----------------------------------------------------|
B|-----------7--7--5-7-10--10--8h10p8-7h8p7-5h7p5------|
G|-7--7-6--7-------------------------------------7h9p7-|
D|-----------------------------------------------------|
A|-----------------------------------------------------|
E|-----------------------------------------------------|

e|--------------------------------------|
B|----------7-7--5-7-10--10--8h10-7h8-7-|G|-7-7-6--7-----------------------------|
D|--------------------------------------|
A|--------------------------------------|
E|--------------------------------------|

Verso 2
Mis manos que aun son de hueso...
e|-------------------------------------------------------|
B|-------------------------------------------------------|
G|----------10---9---------9h10-9------------------5---5-|...
tracking img