Desastres Naturales

Páginas: 7 (1600 palabras) Publicado: 20 de octubre de 2011
Muse-Time Is Running Out

(You will be the death of me...)
e|--12-------11------------12-13-10------
B|-----13-10----13-10-9-12----------(12)-
G|---------------------------------------
D|---------------------------------------
A|---------------------------------------E|---------------------------------------

Artist: Muse
Album: Absolution
Song: Time is running out.


E---------------------------------------------------------------------
B---------------------------------------------------------------------G---------------------------------------------------------------------
D---------------------------------------------------------------------
A-----------------------------5-5-6-----7-----7-7--------3------5-5---
E---5-5-8-5-5-8-8-5-7-7-5-7-7-------0-0---0-0-----0-1-1-----1-3-----3-

VERSE 1: I THINK I'MDROWNING........

E--------------------------------------------------------------------
B--------------------------------------------------------------------
G--------------------------------------------------------------------
D--------------------------------------------------------------------A---------------------------5-5-6-----7------7-7--------3----5-5-----
E-5-5-8-5-5-8-8-5-7-7-5-7-7-------0-0----0-0-----0-1-1---1-3-----3-5-



E---------------------------------------------------------------------
B---------------------------------------------------------------------G---------------------------------------------------------------------
D---------------------------------------------------------------------
A-------------------------5-5-6-----7----7-7--------3-----5-5---------
E-5-8-5-5-8-8-5-7-7-5-7-7-------0-0--0-0------0-1-1---1-3-----3-5-5---E---------------------------------------------------------------------
B---------------------------------------------------------------------
G---------------------------------------------------------------------
D---------------------------------------------------------------------A-----------------------5-5-6----7----7-7-------3-----5-5-------------
E-8-5-5-8-8-5-7-7-5-7-7-------0-0--0-0----0-1-1---1-3-----3-----------



CHORUS: I WON'T LET YOU BURY IT............

E---------------------------------------------------------------------B-0-0-0-1-1-1-1-1-1-1-3-3-1-1-0-0-0-0-0-1-1-1-1-1-1-1-3-3-1-1-0-0-----
G-2-2-2-2-2-2-2-2-0-0-0-0-0-0-0-0-2-2-2-2-2-2-2-2-0-0-0-0-0-0-0-0-----
D-3-3-3-3-3-3-3-3-0-0-0-0-0-0-0-0-2-2-2-2-2-2-2-2-2-2-2-2-2-2-2-2-----
A---------------------------------------------------------------------
E---------------------------------------------------------------------E---------------------------------------------------------------------
B-0-0-0-1-1-1-1-1-1-1-3-3-1-1-0-0-0-0-0-1-1-1-1-1---------------------
G-2-2-2-2-2-2-2-2-0-0-0-0-0-0-0-0-2-2-2-2-2-2-2-2----12-12-10-10-9-9--
D-3-3-3-3-3-3-3-3-0-0-0-0-0-0-0-0-2-2-2-2-2-2-2-2---------------------...
Leer documento completo

Regístrate para leer el documento completo.

Estos documentos también te pueden resultar útiles

  • Desastres Naturales
  • desastres naturales
  • Desastres naturales
  • Desastres Naturales
  • Desastres Naturales
  • Desastres naturales
  • Desastres naturales
  • Los desastres naturales

Conviértase en miembro formal de Buenas Tareas

INSCRÍBETE - ES GRATIS