Diagrama de acordes

Solo disponible en BuenasTareas
  • Páginas : 3 (706 palabras )
  • Descarga(s) : 0
  • Publicado : 12 de junio de 2009
Leer documento completo
Vista previa del texto
DIAGRAMA DE ACORDES 'RAROS' O 'MENOS CONOCIDOS':
B7 Cm
e|2------3------------------------------------------------------------B|0------4-----------------------------------------------------------
G|2------5-----------------------------------------------------------
D|1------5------------------------------------------------------------A|2------3-----------------------------------------------------------
E|x------x------------------------------------------------------------
LETRA:
Guitarra 2 hace en todos los VERSOS las siguietne 4 figuras:
Ge|-------------------------------------------------------------------
B|-----------------3---------3---------------------------------------G|----------4--------4----4---4---------------------------------------
D|----5---5---5---------5---------------------------------------------
A|--5---5-------5-----------------------------------------------------E|3------------------------------------------------------------------


e|----------------2---------2----------------------------------------B|----------3-------3---3----3---------------------------------------
G|----4---4---4-------4----------------------------------------------
D|--4---4-------4-----------------------------------------------------A|2------------------------------------------------------------------
E|-------------------------------------------------------------------

Ce|----------------3--------5-----------------------------------------
B|----------5-------5---5---5-----------------------------------------
G|----5---5---5-------5----------------------------------------------D|--5---5-------5-----------------------------------------------------
A|3------------------------------------------------------------------
E|------------------------------------------------------------------

Cm...
tracking img