Ecel

Solo disponible en BuenasTareas
  • Páginas : 5 (1035 palabras )
  • Descarga(s) : 0
  • Publicado : 9 de febrero de 2012
Leer documento completo
Vista previa del texto
You Only Live Once

Artist: The Strokes
Title: You Only Live Once
Tabbed By: Uriel Mera.M (mexico city)

Guitar 1
Intro.
(palm-muted) x 4
E||--------------------|
B||--------------------|G||--------------------|
D||--9-99-9-9-9-9-9-9--|
A||--7-77-7-7-7-7-7-7--|
E||--------------------|
(palm-muted)
E||-----------------------------------------------|
B||-----------------------------------------------|G||-----------------------------------------------|
D||--9-99-9-9-9-9-9-9--9-99-9-9-9-9-9-9-----------|
A||--7-77-7-7-7-7-7-7--7-77-7-7-7-7-7-7-----------|
E||-----------------------------------------------|\
(x2)
E||-----------------------------------------------|/B||-----------------------------------------------|
G||-----------------------------------------------|
D||--------------------11-1111-11-11-11-11-11-11--|
A||--9-99-9-9-9-9-9-9---9--9-9--9--9--9--9--9--9--|
E||--7-77-7-7-7-7-7-7-----------------------------|

Verse. x 16x 8 x 8
E||---------|---------|------------|
B||---------|---------|------------|
G||---------|---------|------------|(x 4)
D||--9-9-9--|---------|--11-11-11--|
A||--7-7-7--|--9-9-9--|---9--9--9--|
E||---------|--7-7-7--|------------|

Chorus andSolo. x 4
E||--9-9---7--11--9---|--7-7--6--9---7--|
B||--9-9---9--12--11--|--7-7--7--11--9--|
G||--9-9---9--13--11--|--8-8--8--11--9--|
D||-11-11--9--13--11--|--9-9--8--11--9--|
A||-11-11--7--11--9---|--9-9--6--9---7--|
E||--9-9---7--11------|--7-7--6---------|(palm-muted)
E||-----------------------------------------------|
B||-----------------------------------------------|
G||-----------------------------------------------|
D||--9-99-9-9-9-9-9-9--9-99-9-9-9-9-9-9-----------|A||--7-77-7-7-7-7-7-7--7-77-7-7-7-7-7-7-----------|
E||-----------------------------------------------|\
(x2)
E||-----------------------------------------------|/
B||-----------------------------------------------|
G||-----------------------------------------------|D||--------------------11-1111-11-11-11-11-11-11--|
A||--9-99-9-9-9-9-9-9---9--9-9--9--9--9--9--9--9--|
E||--7-77-7-7-7-7-7-7-----------------------------|

Verse. x 16 x 8 x 8
E||---------|---------|------------|
B||---------|---------|------------|G||---------|---------|------------|(x 4)
D||--9-9-9--|---------|--11-11-11--|
A||--7-7-7--|--9-9-9--|---9--9--9--|
E||---------|--7-7-7--|------------|

Chorus and Solo. x 4
E||--9-9---7--11--9---|--7-7--6--9---7--|
B||--9-9---9--12--11--|--7-7--7--11--9--|...
tracking img