Egipto

Solo disponible en BuenasTareas
  • Páginas : 2 (341 palabras )
  • Descarga(s) : 0
  • Publicado : 27 de agosto de 2012
Leer documento completo
Vista previa del texto
ACORDES : RE MI7 LA7 SOL

PUNTEO :

PRIMERA ESTROFA1|------------------2---------------2-2-5---2--------|
2|--3---------2-3-5---3-------2-3-5-------3---5-3-2--|
3|----2---2-4-------------2-4------------------------|4|---------------------------------------------------|
5|---------------------------------------------------|
6|---------------------------------------------------|1|--3-------3-2-------2-----------2-3-5--|
2|--------5-----3---3---5-5-3-5-3--------|
3|----4-4---------2----------------------|4|---------------------------------------|
5|---------------------------------------|
6|---------------------------------------|1|-7---7--7--7-7--------------------------|
2|---------------10-7---7-10-8-------7----|
3|--------------------7--------9-7-6---7--|4|----------------------------------------|
5|----------------------------------------|
6|----------------------------------------|

SEGUNDA ESTROFA (igual ala primera)

ESTRIBILLO

1|----------------------------7-----------------5--|2|--7-7-7-7-10-10-10-8-7-8-10---4-5-7-8-8-8-7-5----|
3|-------------------------------------------------|
4|-------------------------------------------------|5|-------------------------------------------------|
6|-------------------------------------------------|

1|-------------------------------------------------------------|...
tracking img