Ejercicios de guitarra

Solo disponible en BuenasTareas
  • Páginas : 8 (1966 palabras )
  • Descarga(s) : 0
  • Publicado : 4 de marzo de 2012
Leer documento completo
Vista previa del texto
Ligados I

http://usuarios.multimania.es/mbetxikipark/ejercicios%20para%20guitarra.htm
http://www.guitarra.net/

Estos ejercicios te ayudaran a independizar unos dedos de otros. Practicalos a un tempo en el cual suenen bien y luego ve subiendo. Y no lo hagas solo con una combinacion de dedos. Por ejemplo el 1º ejercicio debes hacerlo para empezar con los dedos 1 y 2, pero luegotambien con los dedos 2 y 3, 3 y 4.
E------------------------------------1--2--2--3-------------------------------------------------------------------3--4--
B-----------------------------1--2---------------2--3------------------------------------------------------3--4---------G----------------------1--2----------------------------2--3-----------------------------------------3--4----------------
D---------------1--2------------------------------------------2--3---------------------------3--4-----------------------
A--------1--2--------------------------------------------------------2--3-------------3--4------------------------------
E--1--2---------------------------------------------------------------------2--3--3--4----------------------------------
ETC
 
 E------------------------------------2--1--3--2-------------------------------------------------------------------4--3--
B-----------------------------2--1---------------3--2------------------------------------------------------4--3---------
G----------------------2--1----------------------------3--2-----------------------------------------4--3----------------D---------------2--1------------------------------------------3--2---------------------------4--3-----------------------
A--------2--1--------------------------------------------------------3--2-------------4--3------------------------------
E--2--1---------------------------------------------------------------------3--2--4--3----------------------------------
ETC
 
 E------------------------------------1--3--2--4-------------------------------------------------------------------3--5--
B-----------------------------1--3---------------2--4------------------------------------------------------3--5---------
G----------------------1--3----------------------------2--4-----------------------------------------3--5----------------D---------------1--3------------------------------------------2--4---------------------------3--5-----------------------
A--------1--3--------------------------------------------------------2--4-------------3--5------------------------------
E--1--3---------------------------------------------------------------------2--4--3--5----------------------------------
ETC
 
 E------------------------------------3--1--4--2-------------------------------------------------------------------5--3--
B-----------------------------3--1---------------4--2------------------------------------------------------5--3---------
G----------------------3--1----------------------------4--2-----------------------------------------5--3----------------D---------------3--1------------------------------------------4--2---------------------------5--3-----------------------
A--------3--1--------------------------------------------------------4--2-------------5--3------------------------------
E--3--1---------------------------------------------------------------------4--2--5--3----------------------------------
ETC
 
 
 E------------------------------------1--4--2--5-------------------------------------------------------------------3--6--
B-----------------------------1--4---------------2--5------------------------------------------------------3--6---------
G----------------------1--4----------------------------2--5-----------------------------------------3--6----------------
D---------------1--4------------------------------------------2--5---------------------------3--6-----------------------...
tracking img