Ejercicios para guitarra

Solo disponible en BuenasTareas
  • Páginas : 3 (534 palabras )
  • Descarga(s) : 0
  • Publicado : 21 de marzo de 2011
Leer documento completo
Vista previa del texto
=TABLATURE EXPLANATION=
=======================
* = Artificial Harmonic
pm..| = Palm mute
h = hammer on
p = pull off
/ = slide up
\ = slide down
~ = Vibrato
b() = Bend
x\ = Pick SlideEjercicio 1 (Blues)

E|------------------------------3-6~--6h-3---6h-3------------------------|
B|--------------------------3-6------------6------6-3---6h-3-------------|G|--------------------3-5-6---------------------------5------5-3-5h-3----|
D|----------------3-5-------------------------------------------------5--|A|----------3-4-5--------------------------------------------------------|
E|-12\--3~-6-------------------------------------------------------------|
E|---------------|
B|---------------|
G|---------------|
D|-3-------------|
A|---5-4-3-------|E|---------6-3~--|
Ejercicio2 (Blues)

E|-----------------------------------------------------------------------|
B|-15-12-15~~-12---------15-12----12-------------------------------------|G|---------------14-12~~-------14----12\-9-7-9~---------------------7-8--|
D|------------------------------------------------------------7-8-9------|A|------------------------------------------------------6-7-8------------|
E|----------------------------------------------3/5-6-7------------------|
E|----------------10-11-12-13-12-11-10----------------|B|-------10-11-12----------------------12-11-10-------|
G|-9--12----------------------------------------12~~--|
D|----------------------------------------------------|
A|----------------------------------------------------|E|----------------------------------------------------|
Ejercicio 3 (Arpegio blues)

E|----------12h-14h-12-------------12h-14h-16h-16p-14p-12p-12h-14h-16h---|B|-------14------------14-------14---------------------------------------|
G|-13-16------------------16-16------------------------------------------|
D|-----------------------------------------------------------------------|...
tracking img