El blues de la rana

Solo disponible en BuenasTareas
  • Páginas : 2 (388 palabras )
  • Descarga(s) : 4
  • Publicado : 11 de mayo de 2010
Leer documento completo
Vista previa del texto
The Frog Blues

Claude Gagnon
Guitar

Q E Q E Q. Q. E E E E E E Q E E QE||--0----0--7----7--|--5-------------|--0-----0--7--0--7--|--5---------------|
B||------------------|--3------2------|--------------------|-------3--0--2----|G||--0---------------|----------------|-----0--------------|------------------|
D||------------------|----------------|--------------------|------------------|
A||------------------|--0-------------|--------------------|--0---------------|E||--0---------------|----------------|--0-----------------|------------------|

Q E Q E Q. Q. E E E Q E H.--5----5--0----5--|--3------0------|--3--0----------2--|--0-------------||
--1---------------|--0-------------|--------3--0-------|----------------||
--5---------------|----------------|--3--------2-------|--0------------*||------------------|----------------|-------------------|---------------*||
--0---------------|----------------|--3--------2-------|----------------||------------------|--0-------------|-------------------|--0-------------||

E E E E E E E E E E E E E E E E E E
--------------------|--------------------|--------------------|-----0--------0-----|-----3--3--2-----2--|-----0--------0-----|
-----0--------0-----|-----0--0--0-----0--|-----0--------0-----|
--------------------|--------------------|--------------------|-----------------2--|--0-----------0-----|-----------------2--|
--0-----2--3--------|--------------------|--0-----2--3--------|

E E E Q. E E E E E E E E E E E E
------------------|--------------------|-----3--3-----------|-----3--3--2------|-----1--------1-----|-----3--3-----------|
-----0--0--0------|-----0--------0-----|--------------------|
------------------|--------------------|-----------2--0-----|...
tracking img