El estudiante

Solo disponible en BuenasTareas
  • Páginas : 11 (2601 palabras )
  • Descarga(s) : 0
  • Publicado : 1 de diciembre de 2010
Leer documento completo
Vista previa del texto
Tnt Tab by Ac Dc, www.Ultimate-Guitar.Com


SOLO
|-----3-2-0--------------------------|
|-----------3-2-0--------------------|
|-4~------------2-2p0-----0----------|
|---------------------3p0------------|
|------------------------------------||---------------------------19\0-----|

|----------12------------------------|
|-15b17~------15-12----12------------|
|-------------------14----14-14p12---|
|---------------------------------14-|
|------------------------------------|
|------------------------------------||---------------12-------------12----|
|------------12-----15p12---------12-|
|-12-----14b--------------14h16------|
|-----14-----------------------------|
|------------------------------------|
|------------------------------------||--------------------------17b19r17--|
|--17--------------------------------|
|------------------------------------|
|------14-12-14~-14\-----------------|
|------------------------------------|
|-----------------------0------------|



Back In Black Tab by Ac Dc, www.Ultimate-Guitar.Com4/4 time
moderately=94

e|----------------------------------------------|--------------------------|
B|----------------------------------------------|--------------------------|
G|----------------------------------------------|--------------------------|D|------{X}--------X--------{X}--------X--------|----{X}--------X----------|
A|------{X}--------X--------{X}--------X--------|----{X}--------X----------|
E|------{X}--------X--------{X}--------X--------|----{X}--------X----------|






Rhythm figure 1E D A R
e|-------------------------------------|--------------3-0------------------|
B|------------------3-3-3--------------|--------------------3-0------------|
G|------------------2-2-2----------2-2-|2-----------------------2^(4)`2p0--|D|-2----------------0-0-0----------2-2-|2----------------------------------|
A|-2-------------------------------0-0-|0----------------------------------|
E|-0-----------------------------------|-----------------------------------|

E D A end rhythm figure 1e|------------------------------------|-----------------------------------||
B|-----------------3-3-3--------------|-----------------------------------||
G|-----------------2-2-2----------2-2-|2---------------------------------o||
D|-2---------------0-0-0----------2-2-|2---------------------------------o||A|-2------------------------------0-0-|0---2-----2-----2-----2------------||
E|-0----------------------------------|------4.----5.----6.----7/---------||

with Rhythm figure 1(twice)
Lyrics:
E D A
Back in black_ I hit the sack, I've been too long, I'm glad to be
E D...
tracking img