Ensayo charlot

Solo disponible en BuenasTareas
  • Páginas : 27 (6709 palabras )
  • Descarga(s) : 0
  • Publicado : 10 de junio de 2010
Leer documento completo
Vista previa del texto
akash Afinacion: Eb(MI Bemol)

Esta es la línea de la guitarra Líder.



00:00 00:07


------------------------15-14-15—15b------------------b15b--------------------10s12--15-----------------------------------------
--------12-14---------------------------------------------------
--12h14---------------------------------------------------------
----------------------------------------------------------------
----------------------------------------------------------------00:08

---------12-14-15-14-12-----------------------------------------
--s12-12----------------15-12-15s17—17v-------------------------
-------------------------------------------------7--9--7-7s-----
-------------------------------------------------7--9--7-7s---------------------------------------------------------------------
----------------------------------------------------------------


00:20 00:26

------------------------------15-12-15b-15b-15p12-15v-------------10b—-10p8-10b------------12-----------------------------------
---------------------------12-----------------------------------
----------------------------------------------------------------
----------------------------------------------------------------
----------------------------------------------------------------


00:33--17b--17b--17b--17b--------17v------------12v------------------
----------------------------------------------------------------
----------------------------------------------------------------
--------------------------------------------------------------------------------------------------------------------------------
----------------------------------------------------------------


00:40

--15p12---------------------------------------------------------
----------15-15p12------------------------------------------------------------------14-14p12----14p12---------------------------
-----------------------------14--------14p12-14v----------------
----------------------------------------------------------------
----------------------------------------------------------------

00:43----------------------------------------------------------------
----------------------------------------------------------------
------------------------------12-14-16-14--16--14-12------------
--14---12-10---16---14-12--14------------------------12-14---12-
--------------------------------------------------------------------------------------------------------------------------------

-----------------------------------------15-14-15-15b-15-14-----
-------------------------------10s12--15---------------------15-
-------------------------12-14----------------------------------
10---16---14-12----12h14----------------------------------------...
tracking img