Escalas básicas del blues

Solo disponible en BuenasTareas
  • Páginas : 9 (2160 palabras )
  • Descarga(s) : 9
  • Publicado : 30 de junio de 2010
Leer documento completo
Vista previa del texto
ESCALAS BASICAS DE BLUES (PARTE 1)
 
Esta la primera lección sobre escalas básicas de blues para introducirte en el maravilloso mundo del Blues. Creo que una de las primeras cosas que un bluesman debe saber son las escalas básicas (basadas muchas de ellas en la escala pentatonica). Estas escalas son básicas para muchas de las canciones de blues y recomiendo que practiques con ellas hasta quepuedas tocarlas perfectamente.
Estas escalas están en tabulado por lo que la línea discontinua superior es la sexta cuerda y la inferior es la primera, los numero son los trastes de esas cuerdas que debes tocar. Las notas CDEFGAB corresponden a DO, RE, MI, FA, SOL, LA y SI.
Ok, empecemos con la lección.
1.- Escala basica en A (Pentatonica)-------------------------------------------------------------------8------5-----
------------------------------------------------------7-----5-------------------
-----------------------------------------7-----5--------------------------------
-----------------------------7-----5--------------------------------------------
----------------8------5-----------------------------------------------------------8-----5---------------------------------------------------------------------- 
Una escala fácil ¿no?. Esta es una de las primeras escalas básicas, la siguiente es una variación de esta.
2.- Escala Blues en A  
---------------------------------------------------------------------8-----5----
------------------------------------------------------7---6---5------------------------------------------------------------7----5------------------------------
---------------------------8----7----5-----------------------------------------
---------------8-----5----------------------------------------------------------
---8-----5---------------------------------------------------------------------- 
Como puedes ver esta segunda escala es como la de arriba pero en esta aparecen unas notas que cambian el "sonido" de la escala; estas notasson las llamadas "notas blues" que dan ese toque especial a la escala (las notas especiales son el 8 en la tercera cuerda y el 6 en la quinta cuerda).
Con solo añadir dos notas la escala es muy diferente ganando cuerpo y fuerza.
3.- Escala Blues en A (Afinación en G) 
Para poder tocar bien esta escala debes de afinar tu guitarra a G, para ello utiliza un afinador, un diapasón o la ayuda decualquier amigo para poder afinar tu guitarra. 
------------------------------------------------------------------------------10-----7------
-------------------------------------------------------------9----8----7--------------------
-------------------------------------------10----7----5--------------------------------------------------------------9----8----7-------------------------------------------------------
--------------10----8-----------------------------------------------------------------------
-------10------------------------------------------------------------------------------------ 
Es muy importante una correcta afinación en G de la guitarra ya que sino esta escala sonara realmente mal.
 4.- Escala Blues en A (Afinación en D) 
Esta escala sigue con la tónica de laanterior, una afinación especial, para este caso tienes que afinar la guitarra en D, para ello ya sabes; afinador, diapasón o la ayuda de un amigo. 
-----------------------------------------------------------------------7--------
------------------------------------------------7----6----5----3--------------
-------------------------------------7----5--------------------------------------------------------------------6-----------------------------------------------
----------------7----6----5---------------------------------------------------
-----7----5-------------------------------------------------------------------- 
Lo mismo que antes: aunque tardes mas, afina la guitarra correctamente ya que sino la escala perderá su verdadero sonido. 

Bienvenidos de nuevo!!, si habéis...
tracking img