Estudiante

Solo disponible en BuenasTareas
  • Páginas : 2 (331 palabras )
  • Descarga(s) : 4
  • Publicado : 10 de junio de 2010
Leer documento completo
Vista previa del texto
G Bm
|--3--------3-----3--------3-----|--2--------2-----2--------2-----||-------3-------3------3-------3-|-------3-------3------3-------3-|
|-----4-------4------4-------4---|-----4-------4------4-------4---||--5------5-------5------5-------|--4------4-------4------4-------|
|--------------------------------|--------------------------------|
|--------------------------------|--------------------------------|G7 C/E
|--1--------1-----1--------1-----|--0--------0-----0--------0-----||-------3-------3------3-------3-|-------1-------1------1-------1-|
|-----0-------0------0-------0---|-----0-------0------0-------0---||--3------3-------3------3-------|--2------2-------2------2-------|
|--------------------------------|--------------------------------|
|--------------------------------|--------------------------------|C G
|--0--------0-----0--------0-----|--3--------3-----3--------3-----||-------1-------1------1-------1-|-------0-------0------0-------0-|
|-----0-------0------0-------0---|-------------0--------------0---||--------------------------------|-----0--------------0-----------|
|--3------3-------3------3-------|--------------------------------||--------------------------------|--3------3-------3------3-------|

D Dsus2 D (Dsus4 D5)
|--2--------2-----0--------0-----|--0h-2-------2-------3-----5----|...
tracking img