Estudiante

Solo disponible en BuenasTareas
  • Páginas : 2 (448 palabras )
  • Descarga(s) : 0
  • Publicado : 19 de agosto de 2012
Leer documento completo
Vista previa del texto
Californication

Riff 1
Am Fmaj
|-------------------------|
|------0-1----------------||------------------0-2----|
|----2--------------------|
|--0-------------3--------|
|--------------1----------|
Play 6xRiff 2
Cadd9 Gmaj Fmaj Dm
|------0-----------------------1--||--------3-----0---------------3--|
|----0-----------0-----------2----|
|------------0---------3---0------|
|--3-----------------3---3--------||----------3-------1--------------|


Play 1x

Play Riff 1 4x
Play Riff 2 1xPre-Chorus Riff
Amaj Fmaj
|---0-0-0-0-0-0-0--1111111--|
|---0-0-0-0-0-0-0--1111111--||---2-2-2-2-2-2-2--2222222--|
|---2-2-2-2-2-2-2--3333333--|
|---0-0-0-0-0-0-0-----------|
|---------------------------|
Strum this riff x6You could also strum it like this:
A - 577000
F - 133200


Chorus Riff 1Cadd9 Gmaj Dm Am Cadd9 Gmaj Dm
|--0--0--3--3--1--1--0--0----0--0--3--3--1------|
|--3--3--0--0--3--3--1--1----3--3--0--0--3------||--0--0--0--0--2--2--2--2----0--0--0--0--2------|
|--2--2--0--0--0--0--2--2----2--2--0--0--0------|
|--3--3--2--2--------0--0----3--3--2--2---------|...
tracking img