Excusas

Solo disponible en BuenasTareas
  • Páginas : 3 (512 palabras )
  • Descarga(s) : 30
  • Publicado : 24 de noviembre de 2009
Leer documento completo
Vista previa del texto
INTRO: D-C-G |x2
e|--------------------------------------10--|
B|-------8-7v----7-7---7-------8-7----------|
G|-7-9-7-------------9---9-7-9-----9-7-9----|D|------------------------------------------|
A|------------------------------------------|
E|------------------------------------------|

e|---10--14-12-14-10----10-12-14-12-14-10---10-12-14-12-10-10/17-17-17-15---14b-12-14b-12--10--|B|---------------------------------------------------------------------------------------------|
G|---------------------------------------------------------------------------------------------|D|---------------------------------------------------------------------------------------------|
A|---------------------------------------------------------------------------------------------|E|---------------------------------------------------------------------------------------------|--------------------------------------------------------------------------------------------------------------------------
e|-5-5---5--5--3--3--3-3------------------------------|
B|-7-7---5--5--5--5--3-3------------------------------|
G|-7-7---5--5--5--5--6-6--7---------------------------|D|-7-7---7--7--5--5--5-5--7----4-5-4-----4-5-4--------|
A|-5-5---7--7--3--3--5-5--5--5-------5--5------5------|
E|-------5--5--------3-3------------------------------|
D-Am-C-G-D
esta mal, no te toques mas
la marihuana no hacebien, es muy mala te hace ver otra realidad.

te vas a atar, a la fidelidad
homosexual es una mala palabra no es de gente normal.--------------------------------------------------------------------------------------------------------------------------
E|-5-5-------------------------8--8-7-8-7--8--8-7-8-7--|
B|-5-5--------------8--8--8--8-------------------------|G|-5-5-----5-5-5-5--7--7--7--7-------------------------|
D|-7-7-----5-5-5-5--5--5--5--5-------------------------|
A|-7-7-----3-3-3-3-------------------------------------|
E|-5-5-------------------------------------------------|...
tracking img