Exel

Solo disponible en BuenasTareas
  • Páginas : 5 (1127 palabras )
  • Descarga(s) : 4
  • Publicado : 11 de octubre de 2009
Leer documento completo
Vista previa del texto
Simbologia ejemplificada:
-12h14- hammer on
-14p12- pull off
-12s13- slide
-(12)-- nota fantasma

IMPORTANTE, para no confundirnos:
-12ññ-- mantener sonando la nota, NO es un vibrato
-12vññ- vibrato
-12br-- bend and release (estirar y soltar)
-12bñr- lo mismo pero mas lento
-12bññ- solo estirar, claro

C D C De|----------------------------------------------------|
B|----------------------------------------------------|
G|-5-77777777777777-5-77777777777777------------------|
D|-5-77777777777777-5-77777777777777------------------|
A|-3-55555555555555-3-55555555555555------------------|
E|----------------------------------------------------|
¡Au!

G Ge|--7-xx-5-xx-3-xx-2-xx-3-5|-7----5----3----2----3-5--|
B|--3-xx-3-xx-3-xx-3-xx-3-3|-3-xx-3-xx-3-xx-3-xx-3-3--|
G|-------------------------|--------------------------|
D|-------------------------|--------------------------|
A|-------------------------|--------------------------|
E|-------------------------|--------------------------|

G Ge|--7-xx-5-xx-3-xx-2-xx-3-5|-7----5----3----2----3-5--|
B|--3-xx-3-xx-3-xx-3-xx-3-3|-3-xx-3-xx-3-xx-3-xx-3-3--|
G|-------------------------|--------------------------|
D|-------------------------|--------------------------|
A|-------------------------|--------------------------|
E|-------------------------|--------------------------|

Aquí entra la guitarra No. 2:e|--------------------------|
B|--------------------------|
G|--------------------------|
D|-555-444-222-000----------|
A|-----------------3-2------|
E|---------------------3----|

En esta parte las dos guitarras hacen exáctamente lo mismo.

GC D G
e|--3-----------------3-5-3---------------------------|
B|--3-----------------3-5-3---------------------------|
G|--0-----------------5-7-0---------------------------|
D|--0-----------------5-7-0---------------------------|
A|--2-----------------3-5-2---------------------------|
E|--3-----------------3-5-3---------------------------|
Te salgo a buscar, y no tepuedo encontrar

Em
e|--7-7--7-7--------------3------------5--------------|
B|--8-7--8-7---------------3------------5-------------|
G|--9-9--9-9----------------5------------7------------|
D|--9-9--9-9-------------5------------7---------------|
A|----------------------3------------5----------------|
E|----------------------------------------------------|
Ya tus amigasme han dicho porque

G C D G
e|--3--------------------3-5-3------------------------|
B|--3--------------------3-5-3------------------------|
G|--0--------------------5-7-0------------------------|
D|--0--------------------5-7-0------------------------|
A|--2--------------------3-5-2------------------------|E|--3--------------------3-5-3------------------------|
Llegando a la fiesta, Te veo besándote con otro.

Em
e|--7-7--7-7--------------3------------5--------------|
B|--8-7--8-7---------------3------------5-------------|
G|--9-9--9-9----------------5------------7------------|
D|--9-9--9-9-------------5------------7---------------|
A|----------------------3------------5----------------|E|----------------------------------------------------|
Yo no lo creo, hoy te tengo que olvidar.

G
e|--7-xx-5-xx-3-xx-2-xx-3-5|
B|--3-xx-3-xx-3-xx-3-xx-3-3|
G|-------------------------|
D|-------------------------|
A|-------------------------|
E|-------------------------|

Csus4 Bm Am
e|----3------------2---------------0------------------|...
tracking img