Experiensia

Solo disponible en BuenasTareas
  • Páginas : 2 (370 palabras )
  • Descarga(s) : 0
  • Publicado : 10 de septiembre de 2012
Leer documento completo
Vista previa del texto
Los simsoms
e. ------------------------------------------------------------
B. ------------------------------------------------------------
G-------------2--0--------------------------------------------
D. -----2--4---------2-----------------------------------------
A.--3--------------------3--0---------------------------------
E. ------------------------------2--2--2--3--2--2--2--3--3-----

este es el final:

e.------------------------------------------------------------
B. ------------------------------------------------------------
G-------------------------------------------------------------
D. ------------------------------------------------------------
A. ---------------------------------3--3--3--3--3-3-3----------
E.--2--2--2--3--2--2--2--3--3---------------------------------

Y este es el final de "gracie films" que sale ya que se acaba la
cancion.e ----------------------------------
B ----------------------------------
G ------------2--0------------------
D---0/2--4---------4--2--0--0------
A ----------------------------------
E ----------------------------------
Bob esponja
vive en una piña debajo del mar...bob es-pon-ja...------------------------------------------------------
------------------------------------------------------
-7-7-9-7-------7-7-9-7-----------------------------------------9-------------9------------------------------
-----------10-----------------------------------------
------------------------------------------------------

su cuerpo absorbe y sin estallar.......bob es-pon-ja......
tracking img