Farmacologia vet

Solo disponible en BuenasTareas
  • Páginas : 19 (4701 palabras )
  • Descarga(s) : 0
  • Publicado : 10 de noviembre de 2010
Leer documento completo
Vista previa del texto
VERSION DEL UNPLUGGED

INTRO
D A Em

D A Em


PUNTEO

D A Em D A Em
E -----------------------0-------------------------------------0---------------A -----------0--------------------------------------0--------------------------
D --0-----------------------------2-------0-----------------------------2------
G ----2--------2-----------0---0------------2----------2---------0---0---------
B ---------3--------3--------0---------0---------3----------3------0--------0--
E-------0--------0---------------320----------0----------0-------------320----


RIFF

E------------------------------------
A------------------------------------
D------------------------------------
G------------------------------------B----5-5-5-5---3------3--------------
E----3-3-3-3-s-2-p-0-----------------

(En este verso solo se toca con el punteo que esta arriba)

D A Em
cuentame que harás después que estrenes su cuerpo
D A Em
cuando muera tu traviesacuriosidad
D A Em
cuando memorices todos sus recobecos
D A Em
y decidas otra vez regresar
D A Em (RIFF)
ya no estaré aquí en el mismo lugar


D AEm
si no tiene más que un par de dedos de frente
D A Em
y descubres que no se lava bien los dientes
D A Em
si te queta los pocos centavos que tienes
D A Em
y luego te deja solo tal como quiereG A
sé que volverás el día
A5
en que ella te haga trizas
Dsus D/C# Bm
sin almohadas para llorar
G A
pero si te has decidido y no quieres más conmigoDsus D/C# Bm
nada ahora puede importar
G
porque sin ti
A A5
el mundo ya me da igual

CORO

D A Em
si te vas, si te vas, si te marchas
Em9mi cielo se hará gris
D A Em
si te vas, si te vas, ya no tienes
Em9
que venir por mi
D A Em
si te vas, si te vas, y me cambias
D
por esa bruja, pedazo de cueroA Em
no vuelvas nunca más
D A Em D A Em (punteo)
que no estaré aquí


D A Em
toda escoba nueva siempre barre bien
D A Em
luego...
tracking img