Fededonda

Solo disponible en BuenasTareas
  • Páginas : 17 (4136 palabras )
  • Descarga(s) : 0
  • Publicado : 2 de diciembre de 2010
Leer documento completo
Vista previa del texto
H Q E E E E E E Q E E Q. E +E E E E
|-----------11-|-11-11---13-13----11-|-11--------------11-|
|-----------14-|-14-13---11-11-----9-|--9--------------14-|
|-----------14-|-14-14---12-12----11-|-11--------------14-|
|--------------|-------0--------0----|-------0-(0)-0-0----|

E E E E Q E E Q. E +E E E E
|-11-11---13-13----11-|-11--------------11-||-14-13---11-11-----9-|--9--------------14-|
|-14-14---12-12----11-|-11--------------14-|
|-------0--------0----|-------0-(0)-0-0----|

E E E E Q E E Q. E +Q E E
|-11-11---13-13----11-|-11-------------9-|
|-14-13---11-11-----9-|--9-------------9-|
|-14-14---12-12----11-|-11---------------|
|-------0--------0----|-------0-(0)--0-9-|

+E E E E +E E E E a Q.E +E E E E
|-(9)-8---6-(6)---6-4-|---4--------------9-|
|-(9)-9---7-(7)-7---6-|-4h6--------------9-|
|---------------------|--------------------|
|-(9)-9-9-----------0-|--------0-(0)-0-0-9-|

A E
E E E E +E E E E Q E E E E E S S W
|-9-8---6-(6)---6----|-13---------13----14-------|-16----|||-9-9---7-(7)-7---7/-|---------------------------|-------||
|-------0-(0)--------|-14------14----16----14s19-|-------||
|-9-9-9--------------|-----(0)-------------------|-------||

H +E Q E +H.. E
|-21----(21)--20---18-|-(18)--------16-|
|-18----(18)-(18)--19-|-(19)--------18-|
|-16----(16)-(16)---0-|--(0)-----------|
|---------------------|----------------|

E C#m
a E QE Q E E +H. E E
|----16-16--16-16--14-13-|-(13)--------21-|
|-16h18-18--18-18--16-14-|-(14)--------18-|
|------------------------|-------------16-|
|-----0------------------|----------------|

E E Q +Q E E E E E E E E E E
|-------20--(20)----21-|------20------20----21-|
|----18-------------19-|---19------19----19-18-||-16-----------------0-|-0-------0----------19-|
|----------------------|-----------------------|

+E E Q Q E E +H. E E

|-(21)-------21-------[21]-|-(21)--------9--|
|-(18)---18------[18]------|----------------|
|-(19)---------------------|----------------|
|------0-------------------|-------------9--|

+Q. E E E E E E E E S S S Q Q
|-(9)-----9---------|---14------------------||-----------13-9s11-|--------11h12p11-9--7--|
|-------------------|-0----0----------------|
|-(9)---9-----------|-----------------------|

Q E E E E E E +E E E E E E E E
|-9----9---9---9-|-(9)-----9---9-----9--|
|-6----6---7---9-|-(9)-------9---/11----|
|----------------|----------------------|
|-0--0---0---0---|-----0-0--------------|

Q. E E. S +E E Q E S S Q Q|---------9---9--(9)-11-|-13-----14-13---------|
|--------11--11-(11)----|-14--14-------16--14--|
|-----------------------|--0-------------------|
|-9----9----------------|----------------------|

H E Q E E E E E E E E E
|-16-------16----|----16------16------16-|
|-------14-------|-14------14------14----|
|----------------|-----------------------||--0-----------0-|-------0-------0-------|

Slightly Faster Q=93
C#m7 Asus2
E E E E E E E E E E E E E E E E
|-------16-------16----16-|------16------16---16-|
|----14-------14----------|---14------14---------|
|-16-------16-------16----|-0-------0-------0----|
|-------------------------|----------------------|

E5
E E E E E E E E E E E E E E E E|------16------16---16-|------16------16---16--|
|---14------14---------|---14------14----------|
|----------------------|-----------------------|
|-0-------0-------0----|-0-------0-------0-----|

C#m7 Aadd9
E E E E E E E E E E E E E E E E
|-------16-------16----16-|------16------18---16-|
|----14-------14----------|---14------14---------|...
tracking img