Funciones en excel

Solo disponible en BuenasTareas
  • Páginas : 18 (4281 palabras )
  • Descarga(s) : 4
  • Publicado : 26 de mayo de 2010
Leer documento completo
Vista previa del texto
Clasificación de los
Elementos Químicos

Metales

Son elementos químicos que generalmente contienen entre uno y tres electrones en la última órbita, que pueden ceder con facilidad, lo que los convierte en conductores del calor y la electricidad. Los metales, en líneas generales, son maleables y dúctiles, con un brillo característico, cuya mayor o menor intensidad depende del movimiento delos electrones que componen sus moléculas.  

Son los elementos químicos caracterizados por ser buenos conductores del calor y la electricidad, poseen alta densidad, y son sólidos en temperaturas normales (excepto el mercurio); sus sales forman iones electropositivos (cationes) en disolución.
El concepto de metal refiere tanto a elementos puros, así como aleaciones con características metálicas,como el acero y el bronce. Los metales comprenden la mayor parte de la tabla periódica de los elementos y se separan de los no metales por una línea diagonal entre el boro y el polonio. En comparación con los no metales tienen baja electronegatividad y baja energía de ionización, por lo que es más fácil que los metales cedan electrones y más difícil que los ganen.

Elementos que son metalesNo Nombre Símbolo No Nombre Símbolo

----3----------Litio---------------Li
----4----------Berilio------------Be
---11---------Sodio-------------Na
---12---------Magnesio-------Mg
---13---------Alumunio--------Al
---19---------Potasio----------K
---20---------Calcio------------Ca
---21---------Escandio-------Sc---22---------Titanio-----------Ti
---23---------Vanadio---------V
---24---------Cromo-----------Cr
---25---------Magneso-------Mn
---26---------Hierro------------Fe
---27---------Cobalto---------Co
---28---------Niquel-----------Ni
---29---------Cobre-----------Cu
---30---------Zinc-------------Zn
---31---------Galio------------Ga
---37---------Rubidio---------Rb
---38---------Estroncio------Sr---39---------Itrio---------------Y
---40---------Zirconio---------Zr
---41---------Niobio-----------Nb
---42---------Molibdeno-----Mo
---43---------Tecnecio-------Tc
---44---------Rutenio---------Ru
---45---------Rodio------------Rh
---46---------Paladio---------Pd
---47---------Plata------------Ag
---48---------Cadmio--------Cd
---49---------Indio-------------In
---50---------Estaño---------Sn---55---------Cesio-----------Cs
---56---------Bario------------Ba
---57---------Lantano--------La
---58---------Cerio------------Ce
---59---------Praseodimio--Pr
---60---------Neodimio------Nd
---61---------Prometio------Pm
---62---------Samario-------Sm
---63---------Europio--------Eu
---64---------Gadolinio-----Gd
---65---------Terbio----------Tb
---66---------Disprosio-----Dy---67---------Holmio--------Ho
---68---------Erbio-----------Er
---69---------Tulio------------Tm
---70---------Iterbio----------Yb
---71---------Lutecio---------Lu
---72---------Hafnio----------Hf
---73---------Tantalo---------Ta
---74---------Tugnesteno---W
---75---------Renio-----------Re
---76---------Osmio----------Os
---77---------Iridio-------------Ir
---78---------Platimio--------Pt---79---------Oro--------------Au
---80---------Mercurio------Hg
---81---------Thalio----------Tl
---82---------207.2----------Pb
---83---------Bismuto-------Bi
---87---------Francio--------Fr
---88---------Radio----------Ra
---89---------Actinio--------Ac
---90---------Torio------------Th
---91---------Proctactinio--Pa
---92---------Uranio----------U
---93---------Neptunio------Np---94---------Plutonio-------Pu
---95---------Americio------Am
---96---------Curio-----------Cm
---97---------Berkelio-------Bk
---98---------Californio-----Cf
---99---------Eintenio-------Es
--100---------Fermio--------Fm
--101---------Mandelevio--Md
--102---------Nobelio---------No
--103---------Lawrencio----Lr

 Propiedades

Los metales poseen ciertas propiedades físicas características,...
tracking img