Galo

Solo disponible en BuenasTareas
  • Páginas : 38 (9361 palabras )
  • Descarga(s) : 4
  • Publicado : 27 de enero de 2010
Leer documento completo
Vista previa del texto
The Mars Volta
Inertiatic ESP
Tabbed by: Robe
E-mail: r_nietzsche@hotmail.com

Standard tuning. This is one difficult song to tabbed but I did my best work.

The solo is kind of difficult, ^Ñcause of the timing and the effects.
However, you may play along the E, B, G strings. I came up with some
similar notes though is not right. Is the same for the end of the song
but you may use anexpression pedal. Any comments or suggestions please
send it to my mail:

r_nietzsche@hotmail.com

Intro; very fast picking

w/dist

E |---------------------------------------------------------|
B |---------------------------------------------------------|
G |--11----11----11---11----11------------------------------|
D |--9-----9-----9-----9----9-------------------------------|
A|--x-----x-----x-----x----x-------------------------------|
E |--7-----7-----7-----7----7-------------------------------|

Chorus: (I´m lost)

E |---------------------------------------------------------|
B |---------------------------------------------------------|
G |---9----9------7----7-----11-----11----11------7---------|
D |---9--9---9----7--7---7---11--11-------9----9----9-------|
A|---7-----------5----------9------------x-----------------|
E |---------------------------------------7-----------------|

Verse;

E|-----------------------------------------------------------------------|
B|-----------------------------------------------------------------------|
G|----------------------------------------------------11-11-11--11--11---|D|----------------------------------------------------9--9--9---9---9----|
A|-7-7-7-7x7-7-7-7--5-5-5-5x5-5-5-5--9-9-9-9x9-9-9-9--x--x--x---x---x----|
E|----------------------------------------------------7--7--7---7---7----|

E|-----------------------------------------------------------------------|
B|-----------------------------------------------------------------------|G|--------------------------------------------------------11------7------|
D|--------------------------------------------------------9----9-----9---|
A|-7-7-7-7x7-7-7-7---5-5-5-5x5-5-5-5---9-9-9-9x9-9-9-9----x--------------|
E|--------------------------------------------------------7--------------|

Solo: (the version I came up with^Å)

E|---------------------------/14-----------------------------------------|B|-------------------------------------/15-----12--------9---0---7*------|
G|---11- 11-----w/delay-----------10-------9--------7--------------------|
D|-----------------------------------------------------------------------|
A|-----------------------------------------------------------------------|
E|-----------------------------------------------------------------------|

repeat and add some notes at the end (* is anartificial harmonic)

E|-----------------------------------------------------------------------|
B|-----------------------------------------------------------------------|
G|-----------------------------------------------------------------------|
D|------------------------------7h9999-7h9999-7h9999-7h9999-9h12-12-12-12|A|-0h2222-0h2222-0h2222-0h2222-------------------------------------------|
E|-----------------------------------------------------------------------|

E|-----------------------------------------------------------------------|
B|-----------------------------------------------------------------------|
G|-----------------------------------------------------------------------|
D|-9h12-12-12-12-9h12-12-12-12-9h12-12-12-12-----------------------------|A|-------------------------------------------7h9999-7h9999-7h9999-7h9999-|
E|-----------------------------------------------------------------------|

repeat

After solo;

E|-----------------------------------------------------------------------|
B|------------------10--10-----------------------------------------------|
G|---7--7----4--4---11--11-----11----------7-----------------------------|...
tracking img