Gary moore-the prophet

Solo disponible en BuenasTareas
  • Páginas : 2 (257 palabras )
  • Descarga(s) : 0
  • Publicado : 4 de septiembre de 2012
Leer documento completo
Vista previa del texto
0:33) slowly release
|
E-----------------------------------------------------|B------10brb------10--8--8b------10--8--10--10b--8br--|
G-----------------------------------------------------|
D--12--------12--------------12-----------------------|A-----------------------------------------------------|
E-----------------------------------------------------||-------------------------------------------------------------|
|------13--11--11b------11--10--10b------10brb--11b--10b--8b--||-------------------------------------------------------------|
|--12---------------12---------------12-----------------------|
|-------------------------------------------------------------||-------------------------------------------------------------|


(1:15) slowly release
||-------------------------------------------------------------|
|------15--13--15------15brb------16--15--15b--16b--15br--15--||-------------------------------------------------------------|
|--14--------------14---------14------------------------------|
|-------------------------------------------------------------||-------------------------------------------------------------|


|---------------------------------------------------||------13--11--13------10brb------10--8--8b--9b--8--|
|---------------------------------------------------|
|--12--------------12---------12--------------------|...
tracking img