Gerente

Solo disponible en BuenasTareas
  • Páginas : 2 (405 palabras )
  • Descarga(s) : 0
  • Publicado : 15 de septiembre de 2010
Leer documento completo
Vista previa del texto
Intro

For about the first 30 seconds it sounds like mostly just hitting the first
3 open strings. mix it up with palm muting and throwing insome harmonics.
then when the drums come in, strum the open strings and then tap over the
5th fret.

(:34-1:00)e-------------|
B-------------|
G-------------|
D--0----(5)---|
A--0----(5)---|
D--0----(5)---|(1:01-1:52) * *
e-------------------------------------------------------|B-------------------------------------------------------|
G-------------------------------------------------------|
D--0----0----3----5-6---6-5---------6-5-3-0-3-5-6-5-----|A--0----0----3----5-6---6-5---------6-5-3-0-3-5-6-5-----|
D--0----0----3----5-6---6-5---------6-5-3-0-3-5-6-5-----|
leave out the last two chords (*) intransition to next section

(1:53-2:02)
e--------------------------|
B--------------------------|G--------------------------|
D--6----5----3--5--3--0----|
A--6----5----3--5--3--0----|
D--6----5----3--5--3--0----|(2:03-2:07)
e--------------------|
B--------------------|
G--------------------|
D--6------5------3---|A--6------5------3---|
D--6------5------3---|




(2:08-2:35) * *...
tracking img