Gggggggggkj

Solo disponible en BuenasTareas
  • Páginas : 8 (1978 palabras )
  • Descarga(s) : 0
  • Publicado : 1 de diciembre de 2010
Leer documento completo
Vista previa del texto
Intro
Q=86 1.
4/4
Gtr I
PM--| PM--|
H +E E E E H. Q H +E E E E W
||-----------------|------------|-----------------|---------------||||o----------------|------------|-----------------|--------------o||
||--2----(2)-2-2-2-|-3-------3--|-2----(2)--2-2-2-|-3-------------||
||--2----(2)-2-2-2-|-3-------3--|-2----(2)--2-2-2-|-3-------------||
||o-0----(0)-0-0-0-|-1-------1--|-0----(0)--0-0-0-|-1------------o||
||-----------------|------------|-----------------|---------------|||
| Gtr II
| PM--|
| H +E E E E H. Q H +E E E E H. Q
||-----------------|------------|-----------------|---------------||
||o----------------|------------|-----------------|--------------o||||--2----(2)-2-2-2-|-3-------3--|-2----(2)--------|---------------||
||--2----(2)-2-2-2-|-3-------3--|-2----(2)-/7-6-5-|-3tr5----------||
||o-0----(0)-0-0-0-|-1-------1--|-0----(0)--------|-----------x\-o||
||-----------------|------------|-----------------|---------------||


2.
2/4
Gtrs I,II
E E Q H E E S S S S
|-------------|-------------|
|-------------|-------------|
|-5-----------|-------------|
|-3-----------|-------------|
|-1-----------|---x-x-x-x-x-|
|-------------|-------------|


4/4PM| PM| ~~
Q +S S E E S S S S S S 3x Q +S S E E S S S E.
||----------------------------||-------------------------|
||o--------------------------o||-------------------------|
||----------------------------||-------------------------|||----------------------------||-------------------------|
||o-2--(2)---2-2-5p0-1p0-----o||-2--(2)---2-2-5p0-5-5----|
||--0--(0)---0-0---------3p0--||-0--(0)---0-0------------|


PM| PM| ~~~~~~~~~
Q +S S E E S S S S S S 3x Q +S S E E S S S E. +H +ES S S E.
||----------------------------||-----------------------|----------------------|
||o--------------------------o||-----------------------|----------------------|
||----------------------------||-----------------------|----------------------|||----------------------------||-----------------------|----------------------|
||o-2--(2)---2-2-5p0-1p0-----o||-2--(2)---2-2-5p0-5-5--|-(5)----(5)-5p0-5-5---|
||--0--(0)---0-0---------3p0--||-0--(0)---0-0----------|----------------------|


~~~ PM|
+E +E +Q +E E S S S S Q +S S E E S S S S S S|-------------------------------||----------------------------||
|-------------------------------||o--------------------------o||
|-------------------------------||----------------------------||
|-------------------------------||----------------------------||
|-(5)b7==(5)r(5)--(5)-x-x-x-x-x-||o-2--(2)---2-2-5p0-1p0-----o||...
tracking img