God put a smile upon your face

Solo disponible en BuenasTareas
  • Páginas : 10 (2471 palabras )
  • Descarga(s) : 0
  • Publicado : 4 de marzo de 2012
Leer documento completo
Vista previa del texto
GOD PUT A SMILE UPON YOUR FACE
E------------------------ E-------------------------
A------------------------ A-------------------------
D-----------------14----- D-----------------14----11
G--------13-----13--12-11 G--------13-----13--12-11-
B---14-12--12-12--------- B---14-12--12-12----------E------------------------ E-------------------------


E-----------------------------------------------------
A-----------------------------------------------------
D-----------------------------------------------------
G-----------------------------------------------------B---2*-4-5-4-3-2----2*-4-5-4-3-2----------------------
E-----------------------------------------------------

LIFE IN TECHNICOLOR ll
1|----------0-----------2-2-0----
2|---0---2----------0------------
3|-2---2--------2-2---2----------
4|-------------------------------
5|-------------------------------
6|-------------------------------1|----------0-----------4-4-0----
2|---0---2----------0------------
3|-2---2--------2-2---2----------
4|-------------------------------
5|-------------------------------
6|-------------------------------

x 10

Fam,Re,La(haci es toda la cancion)
There's a wild wind blowing,
Down the corner of my street
Every night there the headlights are glowing

Theres a cold war coming,
On the readio I heard
Baby it's aviolent world

Oh love don't let me go
Won't you take me where the streetlights glow
I could hear it coming
I could hear the sirens sound
Now my feet won't touch the ground

Time came a-creepin'
Oh and time's a loaded gun
Every road is a ray of light
It goes o-o-on
Time only can lead you on
Still it's such a beautiful night

Oh love don't let me go
Won't you take me where thestreetlights glow
I could hear it coming
Like a serenade of sound
Now my feet won't touch the ground

Gravity release me,
And dont ever hold me down
Now my feet won't touch the ground

1|-----------9-----------------9-9---
2|--10-12-10----10-12-10-12-10-----10
3|-----------------------------------
4|-----------------------------------
5|-----------------------------------6|-----------------------------------
(la guitarra electrica hace eso todo el tiempo cundo comienza a cantar)

SHIVER

Intro:

e|--12---9---11---12---9---11---12---9---11---12------|
B|--12----------9-------------9-------------9---------|
G|--9------9-------------9--------------9-------------|
D|----------------------------------------------------|
A|----------------------------------------------------|E|----------------------------------------------------|

(melody repeats without initial chord)

______________________________________________________

Intro riff

e|-------------------------------------------------------|
B|-------------------------------------------------------|
G|-6h8-8-8-8-6-6-6h9-9-9-9-6-6-6h8-8-8-8-6-6/1-1-1-1/4/6-|D|-------------------------------------------------------|
A|-------------------------------------------------------|
E|-------------------------------------------------------|

e|-------------------------------------------------------|
B|-------------------------------------------------------|
G|-6h8-8-8-8-6-6-6h9-9-9-9-6-6-6h8-8-8-8-6-6/1-1-1-1/4/6-|
D|-------------------------------------------------------|A|-------------------------------------------------------|
E|-------------------------------------------------------|

e|-------------------------------------------------------|
B|-------------------------------------------------------|
G|-6h8-8-8-8-6-6-6h9-9-9-9-9/14-14-14-16-16-13/----------|
D|-------------------------------------------------------|
A|-------------------------------------------------------|...
tracking img