Green day-dookie

Solo disponible en BuenasTareas
  • Páginas : 22 (5328 palabras )
  • Descarga(s) : 0
  • Publicado : 10 de noviembre de 2011
Leer documento completo
Vista previa del texto
============================================================================
GREEN DAY - DOOKIE TAB BOOK
============================================================================
Tracks:
============================================================================Burnout
Having A Blast
Chump
Longview
Welcome To Paradise
Pulling Teeth
Basket Case
She
Sassafras Roots
WhenI Come Around
Coming Clean
Emenius Sleepus
In The End
F.O.D.
(All By Myself)
============================================================================
============================================================================
Burnout
Green Day
Dookie (1994)
Lyrics: Billie Joe Armstrong
Music: Green Day
Tuning: 1/2 step down (sounds a semitone lower than written here)Notes: Simple song, the guitar 2 after-chorus part is barely
heard.

h = hammer-on
p = pull-off
b = bend
/ = slide up
\ = slide down
5 = power chord

Verse (x2)
G5 C5 G5 C5 F5 G5 F5 D5
e|---------------------------------------------------------------|
B|---------------------------------------------------------------|G|------5---------5---------------7------------------------------|
D|-5----5----5----5--3--5----3----7------------------------------|
A|-5----3----5----3--3--5----3----5------------------------------|
E|-3---------3-------1--3----1-----------------------------------|

Chorus (guitar 2 before bridge & end)
C5 G5 C5 F5 G5 C5 F5 D5 D5 F#5 G5 A5e|---------------------------------------------------------------|
B|---------------------------------------------------------------|
G|-5---------5----------5---------7-------7----11---12---14------|
D|-5----5----5--3--5----5----3----7-------7----11---12---14------|
A|-3----5----3--3--5----3----3----5-------5----9----10---12------|
E|------3-------1--3---------1-----------------------------------|

Bridge (x4)
G5 F5 G5e|---------------------------------------------------------------|
B|---------------------------------------------------------------|
G|--------------(drum fill)--------------------------------------|
D|-5-5-5--3-5----------------------------------------------------|
A|-5-5-5--3-5----------------------------------------------------|E|-3-3-3--1-3----------------------------------------------------|

Order

Verse 1
Chorus
Verse 2
Chorus x2
Bridge
Chorus x2
End on bridge riff x1

Lyrics

I declare I don't care no more
I'm burning up and out and growing bored
In my smoked out boring room (Verse 1)
My hair is shagging in my eyes
Dragging my feet to hit the street tonight
To drive along these shit town lights

I'm not growing up
I'm just burning out(Chorus)
And I've stepped in line
To walk amongst the dead

Apathy has rained on me
And now I'm feeling like a soggy dream
So close to drowning but I don't mind
I've lived inside this mental cave (Verse 2)
Throw my emotions in the grave
Hell, who needs them anyway?

(Chorus x2)
(Bridge)
(Chorus x2)
============================================================================
Having ABlast
Green Day
Dookie (1994)
Lyrics: Billie Joe Armstrong
Music: Green Day
Tuning: 1/2 step down (sounds a semitone lower than written here)
Notes: The order may seem confusing at first, but it's really
simple to play.

h = hammer-on
p = pull-off
b = bend
/ = slide up
\ = slide down
5 = power chord

Intro (x4)
A5 G5e|---------------------------------------------------------------|
B|---------------------------------------------------------------|
G|---------------------------------------------------------------|
D|-7----5--------------------------------------------------------|
A|-7----5--------2-----------------------------------------------|
E|-5----3----3-3---3---------------------------------------------|

Verse (x2)
A5 (PM) F#5 G5 E5...
tracking img