Griegos

Solo disponible en BuenasTareas
  • Páginas : 2 (311 palabras )
  • Descarga(s) : 0
  • Publicado : 11 de mayo de 2011
Leer documento completo
Vista previa del texto
|------------------------------------------------------------------|(2x)
|------------------------------------------------------------------||---------9-------8-------------------------9-------8--------------|
|---7-------7---7---7---7-------------7-------7---7---7---7--------|
|-0---0-0-----0-------0-------------0---0-0-----0-------0----10-10-||-------------------------8-8-8-8-----------------------------8--8-|

pm........
|----------------------------------------------------------|
|----------------------------------------------------------||---------9-------8----------------------------------------|jfjgnv kebfvvbkerhbvrbtvbrbvrbverbtlvwbfjvbwljrbvlw g wr br rb bwr vlwrb lb rb lrbgl bwrlb rb lrbl bwlrjb jwrb ljbrg jbwrb lwbr lwrbl wbr jbwlr blwrb lwrb wjr ljrbgljwr wblr wlrb lwjb jwbr jbwr jbwlj bw blwjr blwb wjb lwjb lkwbdf lwjrtb lkdjb sd bwknb jwb hwbf kjnwb kjwbnlsdnb lwrbg jwbrj bsljkdgb wrtpuwhpfuhw3prtgpworfnpwrhpr pr pr pwrjgn pwjb pjr pwj pwjrb pwjrbpjbwrp jbwpjb prjb wjrbg pjwrbg pjwrp jwbrp jbwrg bwjv bprjg bwpjrg pwrjg wprjgb pwrjb pirj prjgb pwjrvb wbg pjbr brj bprj bpwjb pwfb prgj bpwrjgb prgb pwjrb pwvb pjrgb pwrbg pwrbp wbrp jbwfjv bwprjgbwpjfvb prt wrt pwurn prjb wrjb wjr pjrgn jwrn pjrg pwjb wjrg pjwnr jwrjg wprjg wrj npwrjg npwjrn wrj osivb smd rubhurn wr nr jr wpj nwjrg pjwrng jwrng pjw f nsfn wrn rj bprj wrjn wprjn 3wjr ijerpiwjr pwr pjwrg jwrg j rg jwrgj wrjg nprejg rjwg wjrg pijwr wjr gpjiwrg pjwrgj wrgj epirjg iejrg oirg pwr giw rgi jwrpig wprg
|---7-------7---7---7---7------------------7-7-7-7-7-7-7-7-||-0---0-0-----0-------0------------10-10---7-7-7-7-7-7-7-7-|
|-------------------------8-8-8-8---8--8---5-5-5-5-5-5-5-5-|

|------------------------------------------------------------------||------------------------------------------------------------------|
|---------9-------8-------------------------9-------8--------------|
|---7-------7---7---7---7-------------7-------7---7---7---7--------|...
tracking img