Guia de acordes

Solo disponible en BuenasTareas
  • Páginas : 67 (16578 palabras )
  • Descarga(s) : 0
  • Publicado : 12 de octubre de 2010
Leer documento completo
Vista previa del texto
“Love Bug” Jonás Brothers(Álbum: A Little Bit Longer)

(People chatting: “I thought there was gonna be pizza at this party.” “Hey Ming, Joe’s not a girl”)
e|-------------------------|----|--------------------|
B|-------------------------|----|--------------------|
G|----8-8---6-6---9-9-9-9--|----|----8-8---6-6---9~--|D|----9-9---7-7---9-9-9-9--|-x5-|----9-9---7-7---9~--|
A|---------------7-7-7-7---|----|----------------7~--|
E|---7-7---5-5-------------|----|---7-7---5-5--------|
(Called her for the first time yesterday
Finally found the missing part of me
Felt so close but you were far away
Left me without anything to say)

(Chorus:)e|-------------------------------------------|
B|-------------------------------------------|
G|----9-9-9-9---8-8-8-8---6-6-6-6---9-9-9-9--|
D|----9-9-9-9---8-8-8-8---7-7-7-7---9-9-9-9--| x2
A|---7-7-7-7---6-6-6-6-------------7-7-7-7---|
E|-----------------------5-5-5-5-------------|
(Now I'm speechless, over the edge, I'm just breathless
I never thought thatI'd catch this love bug again
Hopeless, head over heels in the moment
I never thought that I'd get hit by this love bug again)

B|--------------------------14\----------------------------------------------17\--|
G|---8-9-9-9-8-6-4~--11-13-------8-9-9-9-8-6-4~--15h16-16-16-16--15h16-16-16-16\--|
(people chatting: “Hey, John Taylor!!”)e|-------------------------|
B|-------------------------|
G|----8-8---6-6---9-9-9-9--|
D|----9-9---7-7---9-9-9-9--| x4
A|---------------7-7-7-7---|
E|---7-7---5-5-------------|
I can't get your smile out of my mind
{I can't get you out of my mind}
I think about your eyes all the time
You're beautiful but you don't eventry
(You don't even, don't even try)
Modesty is just so hard to find


(REPEAT Chorus)
e|-------------------------------------------|
B|-------------------------------------------|
G|----9-9-9-9---8-8-8-8---6-6-6-6---9-9-9-9--|
D|----9-9-9-9---8-8-8-8---7-7-7-7---9-9-9-9--| x2A|---7-7-7-7---6-6-6-6-------------7-7-7-7---|
E|-----------------------5-5-5-5-------------|

(Now I'm speechless, over the edge, I'm just breathless
I never thought that I'd catch this love bug again
Hopeless, head over heels in the moment
I never thought that I'd get hit by this love bug again)

e|---------------||---------------|
B|---------------| |---(3rd-time)--|
G|---------------| |---------------|
D|---------------| x4 |---------------|
A|---9~-7~-11~---| |---11h12-11~---|
E|---------------| |---------------|
Kissed her for the first time yesterday
Everything I wished that it would be
Suddenly you forgot how to speak.Hopeless, breathless baby can't you see?
Now I'm...

Guitar solo
e|--------------------------------------------------------------------------------|
B|------------------10-12-10-9--------------------10-12-10-9----------------------|
G|---11^-11^~---11^------------9---11^-11^~---11^------------9---11^-11^--9-------|D|----------------------------------------------------------------------------11--|
A|--------------------------------------------------------------------------------|
E|--------------------------------------------------------------------------------|

e|--------------------------|
B|--------------------------|
G|----------9^-9^-9---------|
D|---9-9h11----------10-9~--| x2
A|--------------------------|...
tracking img