Guitar tabs

Solo disponible en BuenasTareas
  • Páginas : 5 (1055 palabras )
  • Descarga(s) : 0
  • Publicado : 13 de febrero de 2012
Leer documento completo
Vista previa del texto
SHOW ME HOW TO LIVE
As recorded by Audioslave
(From the 2002 Album AUDIOSLAVE)

Words by Chris Cornell

Music by Tom Morello and Tim Commerford
Arranged by Audioslave

Gtr I (D A D G B E) - 'Untitled'

Intro
Moderate Rock Q=92
D5 E5 D5 E5
4/4
Gtr I
Q E E +H +H. +EE Q E E +H +H. +E E
||----------------|------------------|---------------|------------------||
||o-3-------------|------------------|-3-------------|-----------------o||
||--2-------------|------------------|-2-------------|------------------||
||--0----2-(2)----|-(2)------(2)p(0)-|-0----2-(2)----|-(2)------(2)-----||||o------2-(2)----|-(2)------(2)-----|------2-(2)----|-(2)------(2)----o||
||-------2-(2)----|-(2)------(2)-----|------2-(2)----|-(2)------(2)-----||

D5E5 D5E5 D5E5 N.C. A5E5 G5D5
S S S S S S E S S S S E S S S S S S S S S S S S S S S S S S
||------------------------------|----------------------------------|
||o-----------------------------|----------------------------------|||------------------------------|----------------------------------|
||--------2---x-------x-x-------|-x-x---------x-x-2----------------|
||o-----2-----x-0-2---x-x-0-2---|-x-x-0h1-0---x-x-0-2---2-5-0---0--|
||--0h2-------x-0-2---x-x-0-2---|-x-x---------x-x---2---2-5-0---0--|

D5E5 D5E5 D5E5
S S S S S S E S S S S E S S W
|-----------------------------|-------||
|-----------------------------|------o|||-----------------------------|-------||
|-------2---x-------x-x-------|-------||
|-----2-----x-0-2---x-x-0-2---|------o||
|-0h2-------x-0-2---x-x-0-2---|-------||

1st Verse
D5E5 D5E5 D5E5 N.C. A5E5 G5D5
PM----------------------------------------------------------|
S S S S S S E S S S S E S S S S S S S S S S S S S S S S S S||------------------------------|----------------------------------|
||o-----------------------------|----------------------------------|
||------------------------------|----------------------------------|
||--------2---x-------x-x-------|-x-x---------x-x-2----------------|
||o-----2-----x-0-2---x-x-0-2---|-x-x-0h1-0---x-x-0-2---2-5-0---0--|
||--0h2-------x-0-2---x-x-0-2---|-x-x---------x-x---2---2-5-0---0--|D5E5 D5E5 D5E5
PM------------------------|
S S S S S S E S S S S E S S W
|-----------------------------|-------||
|-----------------------------|------o||
|-----------------------------|-------||
|-------2---x-------x-x-------|-------||
|-----2-----x-0-2---x-x-0-2---|------o||
|-0h2-------x-0-2---x-x-0-2---|-------||

D5E5 D5E5 D5E5 N.C.A5E5 G5D5
PM--------------------------------------------------|
S S S S S S E S S S S E S S S S S S S S S S S S S S S S S S
||------------------------------|----------------------------------|
||o-----------------------------|----------------------------------|
||------------------------------|----------------------------------|||--------2---x-------x-x-------|-x-x---------x-x-2----------------|
||o-----2-----x-0-2---x-x-0-2---|-x-x-0h1-0---x-x-0-2---2-5-0---0--|
||--0h2-------x-0-2---x-x-0-2---|-x-x---------x-x---2---2-5-0---0--|

1. 2.
D5E5 D5E5 D5E5 N.C.
PM PM
S S S S S S E S S S S E S S W Q Q E S E S S S|-----------------------------|-----------||--------------------||
|-----------------------------|----------o||--------------------||
|-----------------------------|-----------||-x--x--x-x-x-x-x-x--||
|-------2---x-------x-x-------|-----------||-x--x--x-x-x-x-x-x--||
|-----2-----x-0-2---x-x-0-2---|----------o||-x--x--x-x-x-x-x-x--||
|-0h2-------x-0-2---x-x-0-2---|-----------||-x--x--x-x-x-x-x-x--||

Chorus
$...
tracking img