Guitarra

Solo disponible en BuenasTareas
  • Páginas : 2 (280 palabras )
  • Descarga(s) : 0
  • Publicado : 11 de mayo de 2011
Leer documento completo
Vista previa del texto
Para elisa música clásica.
E--12--11-12-11-12--7-10-8-5---------5--7-------4-7-8-|---|
B----------------------------------5----------5-------|-5-|G--------------------------------5--------------------|---|
D------------------------------7------------6---------|---|A----------------------------7------------7-----------|---|
E--------------------------5------------0-------------|---|E-12-11-12-11-12--7-10-8-5---------5--7-------8-7-5-----|
B--------------------------------5----------5-----------|
G------------------------------5------------------------|D----------------------------7------------6-----------7-|
A--------------------------7------------7-----------7---|
E------------------------5------------0-----------5-----|
Se repite 2veces.E-7-8-10-12-------|---13-12-10----|---12-10-8-----|
B-----------------|-8-------------|-6-------------|
G-----------------|---------------|---------------|D--------------10-|-------------9-|-------------7-|
A-----------10----|-----------10--|-----------7---|
E---------8-------|---------------|---------5-----|

E---10-8-7------0-0-12-0-12-12-24-|
B-5-------------------------------|G---------------------------------|
D------------6--------------------|
A----------7----------------------|
E--------0------------------------|E---------0---------8---13--12-12--10-|-18--17-17--15-|
B-13--13--13-----10-------------------|---------------|
G-9---10--12--10----------------------|---------------|
D-------------------------------------|---------------|A-------------------------------------|---------------|
E-------------------------------------|---------------|

E-13-12-10-8-6-5---6-5-3-5-6-8-|
B------------------------------|
G------------------------------|...
tracking img