Guitarra

Solo disponible en BuenasTareas
  • Páginas : 5 (1114 palabras )
  • Descarga(s) : 0
  • Publicado : 21 de febrero de 2013
Leer documento completo
Vista previa del texto
Intro...
E |------------------------------------------------|
B |-----5---5---5---5------------5---5---5---5-----|
G |---4---7---6---4-----6------4---7---6---4-----6-|
D |-------------------7------------------------7---|
A |------------------------------------------------|
E|------------------------------------------------|

E |------------------------------------------------|
B |------------------------------------------------|
G |------------4-7-6--6-4---4----------------------|
D |-----4-5-7-------------6---5-5-5-4--------------|
A |---7-------------------------------7------------|E |------------------------------------------------|

E |--------------------------------------------|
B |--------------------------------------------|
G |---9-7-9---7-------------9-7-9---7----------|
D |---------9---7-7---------------9---7-7------|(*4)
A|-----------------10-7------------------10-7-|
E |--------------------------------------------|

Cada blanco de mi mente
Se vuelve color con verte
Y el deseo de tenerte
Es más fuerte, es más fuerte
Sólo quiero que me lleves

De tu mano por la senda
Yatravesar el bosque
Que divide nuestras vidas
C G Am C D
Hay tantas cosas que me gustan hoy de ti…




CORO
G
Me enamora que me hables con tu boca
D
Me enamoraque me eleves hasta el cielo
C G
Me enamora que de mi sea tu alma soñadora
G D7 Em
Esperanza de mis ojos
D
Sin ti mi vida no tiene sentido
C
Sin ti mi vida escomo un remolino
D C
De cenizas que se van oh oh oh oh
D
Volando con el viento…







Punteo…
E|------------------------------------------------|
B |-----5---5---5---5------------5---5---5---5-----|
G |---4---7---6---4-----6------4---7---6---4-----6-|
D |-------------------7------------------------7---|
A |------------------------------------------------|
E |------------------------------------------------|E |------------------------------------------------|
B |------------------------------------------------|
G |------------4-7-6--6-4---4----------------------|
D |-----4-5-7-------------6---5-5-5-4--------------|
A |---7-------------------------------7------------|
E|------------------------------------------------|

E |------------------------------------------------|
B |--8b10r8----------------------------------------|
G |---------9-7-----------------------7------------|
D |-------------9-7-5-------5---5-7-9---9-7-5------|
A |-------------------7-5-7---7---------------7-5-7|
E...
tracking img