Hartke

Solo disponible en BuenasTareas
  • Páginas : 5 (1193 palabras )
  • Descarga(s) : 0
  • Publicado : 8 de septiembre de 2012
Leer documento completo
Vista previa del texto
Major Arpeggios
Arpeggio Charts
The arpeggio charts in this lesson are written from a horizontal perspective. So the first string is on top, and the 4th string is on the bottom. The numbers in red represents the root of the arpeggio. Each arpeggio shape can be played anywhere on the neck of the bass. The name will just depend on what position you are playing in. Just line the red notes upwith whatever major arpeggio you want it to be. You will need to have a basic understanding of what the names of the notes are on the neck of the bass to be able to determine what position to play in.
||--1--|-----|-----|-----| - 1st string |
||-----|-----|--3--|-----| |
||-----|-----|-----|--4--||
||--1--|-----|-----|--4--| - 4th string |


When the root of the arpeggio is not the lowest note in the form, you should practice the arpeggio in 2 ways.
1. Start on the lowest root in the form, work your way to the lowest note, then up to the highest note, then return to the lowest root again. Here is how you wouldplay the above arpeggio form at the 5th fret. This would be an F major arpeggio.

G:--------------5------|
D:------------7---7----|
A:--8-------8-------8--|
E:----8-5-8------------|
2. Play the arpeggio starting from the lowest note, work your way to the highest, then back to the lowest. As a variation, you may want to pause on the roots in the arpeggio. That way your ear will becomeaccustom to how all of the notes sound in relationship to the root. Again the roots will be the numbers in red.

G:----------5----------|
D:--------7---7--------|
A:------8-------8------|
E:--5-8-----------8-5--| 
Chord Functions
So the chord formula for a major chord is 1 3 5. See the lesson on basic chord construction.
G A B C D E F[pic] = G major scale
1 2 3 4 5 6 7
|   |   |   
G   B  D = G chord notes
1   3   5 = Chord function (Chord formula)

Major Arpeggios
Root on the 4th string
|Suggested Fingering |Chord Functions |
| ||-----|--3--|-----|-----|-----| |
||-----|--2--|-----|-----|-----|||-----|-----|--1--|-----|-----| |
||-----|-----|--3--|-----|-----| ||-----|-----|--5--|-----|-----| |
||-----|-----|--3--|-----|-----| ||--1--|-----|-----|-----|--3--| |
||--1--|-----|-----|-----|--4--| ||

|Suggested Fingering |Chord Functions |
||-----|-----|--3--|-----| ||-----|-----|--3--|-----| |
||-----|-----|-----|--4--| ||-----|-----|-----|--1--||
||--1--|-----|-----|--4--| ||--3--|-----|-----|--5--| |
||-----|--2--|-----|-----| ||-----|--1--|-----|-----| |

|Suggested Fingering |Chord Functions |||--1--|-----|-----|-----| ||--1--|-----|-----|-----| |
||--1--|-----|-----|-----| ||--5--|-----|-----|-----| |
||-----|-----|--3--|-----| ||-----|-----|--3--|-----| |
||-----|-----|-----|--4--|...
tracking img