Heroes medievales

Solo disponible en BuenasTareas
  • Páginas : 3 (527 palabras )
  • Descarga(s) : 0
  • Publicado : 29 de noviembre de 2010
Leer documento completo
Vista previa del texto
Gtrra. Acústica: -Armónica(D):

1. ----2-0-2----2h3-2-|
2. ---3--------3------|
3. --2--------2-------|
4. -0--------0--------| 1...
5.-------------------|
6. -------------------|

1. ----2-0-2----2h3-2-|
2. ---3--------3------|
3. --2--------2-------|
4. -0--------0--------| 2/3 4
5. -------------------|
6.-------------------|

1. ----2-0-2----2h3-2-|
2. ---3--------3------|
3. --2--------2-------|
4. -0--------0--------| 5... 4 (4)
5. -------------------|
6. -------------------|

1. ----2-0-2----2h3-2-|2. ---3--------3------| (3) 3 (2)~ 3 (2)
3. --2--------2-------| (3)~ (3) (3) (3) 3 2 1 1
4. -0--------0--------| 1 1 (1) (2) 1 (3)~ 3 (2) (3) 3 2
5.-------------------| 1 (1) 2 2/3 4 4 (4) (6) (6) 5
6. -------------------| 4 5 (4) 4 (4)
4 (4) 5 4 (4) (5) 4 (4) 4 (3) 3 (1) 2*

*Verso:

BmEm A
Donde estés hoy y siempre, (riff)
D Bm7
yo te llevo conmigo,
Em F#m Bm7 riff:
necesito cuidado, necesitode tí. 1. -------------|
2. -------------|
Bm Em A 3. -------------|
Si me voy, donde vaya, (riff) 4.-------------|
D Bm7 5. ---------5---|
yo te llevo conmigo, 6. –0---5h7---5-|
Em F#m
no me dejes ir solo
Bm B7necesito de ti.

*Coro:

Em
Tú me sabes bien cuidar,
A
tú me sabes bién guiar,
D
todolo haces muy bien tú,
Bm
ser muy buena es tu virtud,
Em
cómo te puedo pagar,
A
todo lo que haces por mí,
D...
tracking img