Historia

Solo disponible en BuenasTareas
  • Páginas : 5 (1199 palabras )
  • Descarga(s) : 0
  • Publicado : 25 de noviembre de 2010
Leer documento completo
Vista previa del texto
staying alive
Intro:
Well you can tell
------------------------------|---------------------------------------
------------------------------|--------------------------------13----- I
-----------13-----------------|------------------------13--15--13----- I o---13--15------13----------13-|------------13-----15-----------13----- I o
---15------15--15-15-13-15----|---13---15------13--------------------- I
---------------------13-------|---13-------13--13---------------------

--------------------------------------|-------------------------------------
--------------------------------------|-------------------------------------15-13--15------13--13-15-----------13-|13-----------------------------------
-------13--15--13--13-13----15--15-13-|-----15--------13-15---15-15---------
-------15------15--15-15-----------13-|------------------15---15-15---------
--------------------------------------|------------------16---16-16---------
(Fm7) (Eb) (Fm)

mus- ic loud and women warm, I've been |kicked around sinceI-- was born.
wings of heav-en on my shoes, I'm a |danc- in man and I just cant lose
----------------------------------------|-----------------------------------
13----13-13-----------------------------|-----------------------------------
13----13-13-------13-13-15--------------|13-----13-13-----------------------13----13-13---15--13-13-13----15---15---|13-----13-13--13----15----15--15---
------------------15-15-15--------------|13-----13-13--------15----15--15---
----------------------------------------|--------------------16----16--16---
(Fm7) (Eb) (Fm)
other day.
--------------|----------------------------|-------------------------------------------|----------------------------|-----------------------------
----13---13---|-15--15-----13---15-15------|-13--15--15---13--17-15-15---
15------------|-15--15-----15---15-15------|-15--15--15---15--15-15-15---
--------------|-17--17-----17---17-17------|-17--17--17---17--17-17-17---
--------------|----------------------------|-----------------------------
Angie

INTRO
Guitar 1 acousticstandard tuning
Am
|-------------------------|-0--0--0-----3-0---------|
|-------------------------|-1-----1-----1-----1-----|
|-------------------------|-2-----2---------2-------|
|-------------------------|-2---------2---------2-2-|
|---------- 12 -----------|-------------------------|
|-------------------------|-------------------------|

E7Gsus4 F4 F
|--------0-----------0-----|--------3--------------1--|
|------3---3-----3---------|------3---3--------------1|
|----4-------4---4-----4-0-|----5-------5---3--2------|
|--------------------------|-5------------5-3--3------|
|--------------------------|--------------------------|
|-0------------4-----------|--------------------------|VERSE
Angie
Csus4 C Gsus4/B Am
|-----1-----------0--------|-----0---------5-5-5-3----|
|-----------1-----1-----1--|-----1---------5-5-5-3----|
|---2---------0-----------0|-----------------------5--|
|-3-------3---2-------0----|-2----------2-------------||-------3-----------2------|-0------------------------|
|--------------------------|--------------------------|

Angie when will those clouds all disappear
E7 Gsus4 G F4 F
|-----------0---0---0------|----3--3------------------|
|---------3---3-3---3------|----3--3------------------|
|-------4-------4-------X--|----5--5-----3--2---------|...
tracking img