Historia

Solo disponible en BuenasTareas
  • Páginas : 2 (496 palabras )
  • Descarga(s) : 0
  • Publicado : 22 de marzo de 2011
Leer documento completo
Vista previa del texto
Ven elefante

C#m B
e|--4-----------4---------------|--------2--------------------|
B|--5-----5p4-----5p4---4-------|--4p2-----4p2-------4--------|G|--6---------6-------6---6-4---|------4-------4-2-4----------|
D|--6---------------------------|-----------------------------|
A|--4---------------------------|-----------------------------|E|--4---------------------------|-----------------------------|

G#m C#m
e|------------------------------|--------4--------7-7---4-----|B|----------4-------4-----------|----5-------5--------5-------|
G|------4-------4-------4-------|--6---6---6---6--------------|
D|--4/6---6---6---6---6---------|-----------------------------|A|------------------------------|-----------------------------|
E|------------------------------|-----------------------------|

C#m B
e|--------4-7---7-4-------------|--------2--------------------|B|--5p4-------5-----5-5p4-------|--4p2-----4p2----------------|
G|------6-----------------------|------4-------4-2-4-2--------|
D|------------------------------|-----------------------------|A|------------------------------|-----------------------------|
E|------------------------------|-----------------------------|

F# C#me|------------------------------|-----------------------------|
B|------------------------------|-5p4-------------------------|
G|--4/6-4-2---6h8-8-8-6-4-4h6-4-|-----6-4---4-4h6-------------|D|------------------------------|---------6-------------------|
A|------------------------------|-----------------------------|
E|------------------------------|-----------------------------|

C#m G#m
Muchas razones esta noche
F#C#m
Para querer oír tu voz
C#m G#m
Para buscar por los rincones
F# C#m
Un poquito de calor.

C#m G#m
Muchas mentiras allá...
tracking img