Hitler

Solo disponible en BuenasTareas
  • Páginas : 3 (592 palabras )
  • Descarga(s) : 0
  • Publicado : 7 de diciembre de 2010
Leer documento completo
Vista previa del texto
Intro:

E---0---0---0---x--------x---x---x---|---0---0---0---x--------x---x---x--|
B---1---1---1---2--------2---2---2---|---1---1---1---2--------2---2---2--|G---0---0---0---2--------2---2---2---|---0---0---0---2--------2---2---2--|
D---2---2---2---2--------2---2---2---|---2---2---2---2--------2---2---2--|
A---3---3---3---0--------0---0---0---|---3---3---3---0--------0---0---0--|e---x---x---x---x--------x---x---x---|---x---x---x---x--------x---x---x--|

E---0---0---0---x-------3-----1------|--1--1--0--1----2------------------|B---1---1---1---2-------3-----1------|--1--1--0--1----3------------------|
G---0---0---0---2-------4-----2------|--2--2--2--2----2------------------|
D---2---2---2---2-------5-----3------|--3--3--3--3----0------------------|A---3---3---3---0-------5-----3------|--3--3--3--3----x------------------|
e---x---x---x---x-------3-----1------|--1--1--0--0----x------------------|

Basic Rhythm:

D=Down stroke
U=Up Stroke

D U D U UD
E---2---2---x---2---2---x------------|-----------------------------------|
B---3---3---x---3---3---x------------|-----------------------------------|G---2---2---x---2---2---x------------|-----------------------------------|
D---0---0---x---0---0---x------------|-----------------------------------|
A---x---x---x---x---x---x------------|-----------------------------------|e---x---x---x---x---x---x------------|-----------------------------------|

D
Left a good job in the city,
Workin for the man every night and day
And I never lost one minute of sleepin',
Worryin' 'boutthe way things might have been.

A
Big wheel a-keep on turnin'
Bm
Proud Mary keep on burnin',

Riff 1 right after burnin'E------------------------------------|-----------------------------------|
B------------------------------------|-----------------------------------|
G------------------------------------|-----------------------------------|...
tracking img