Hola

Solo disponible en BuenasTareas
  • Páginas : 2 (292 palabras )
  • Descarga(s) : 0
  • Publicado : 19 de febrero de 2012
Leer documento completo
Vista previa del texto
GIVE LOVE A TRY


E--------------------|
B--------------------|
G--------4--5--------|
D--------------------| x2
A---3----------------|
E--------------------| (intro)E-------------------------------------…
B-------------------------------------…
G-------4--5-------------4--5---------…
D-------------------------------------…
A---3----------------3----------------…E-------------------------------------…

You, You're like driving on a Sunday / You, You're like taking off on Monday

E-------------------------------------…
B-------------------------------------…G-------5--4-----------------4--2-----…
D-------------------------------------…
A--3---------------------3------------…
E-------------------------------------…

You / You're like a dream / Dream come true.E-------------------------|
B-------------------------|
G-------------4--5--------|
D-------------------------| x2
A-----3-------------------|
E-------------------------|E-------------------------------------…
B-------------------------------------…
G-------4--5-------------4--5---------…
D-------------------------------------…
A---3--------------3------------------…E-------------------------------------…

I, Just a face you never notice / I, Just trying to be honest with myself,

E-------------------------------------…
B-------------------------------------…G--------5--4----------------4----2---…
D-------------------------------------…
A---3-------------------3-------------…
E-------------------------------------…

With you / With the world.E---------------------|
B---------------------|
G---------4---5-------|
D---------------------| x2
A---3-----------------|
E---------------------|

(Chorus)
E-------------------------------------…B-------------------------------------…
G-------5-5-------------------------3-…
D-------5-5-----------5-5-----------3-…
A---3-----------------5-5--------1----…
E-----------------3-------------------…...
tracking img