Intro

Solo disponible en BuenasTareas
  • Páginas : 21 (5111 palabras )
  • Descarga(s) : 0
  • Publicado : 29 de febrero de 2012
Leer documento completo
Vista previa del texto
tro
intro:D#m,A#m,B,F#

e|---------------------|----------------------|
b|---------------------|----------------------|
g|--3------------------|----------------------|
D|----1-—1-3-4-3-------|--------4-------------|
A|-------------—--1----|--1-2-4---2-----------|
E|---------------------|----------------------|

e|---------------------|----------------------|b|---------------------|----------------------|
g|------4-3------------|---3p1---1-3----------|
D|--4-6-----4----------|-------3--------------|
A|-------------—-------|----------------------|
E|---------------------|----------------------|


Tienes todos los espacios
e|---------------------|
b|---------------------|
g|---------------------|
D|--------4------------|
A|--1-2-4------—-------|E|---------------------|


Inundados de tu ausencia
e|---------------------|
b|---------------------|
g|--3p1---1-3----------|
D|------3--------------|
A|-------------—-------|
E|---------------------|


Inundados de silencio
e|---------------------|
b|---------------------|
g|---------------------|
D|--------4------------|
A|--1-2-4------—-------|
E|---------------------|


No hay palabras nohay perdón
e|---------------------|
b|---------------------|
g|--3p1---1-3----------|
D|------3--------------|
A|-------------—-------|
E|---------------------|


D#m A#m
Tu me tienes olvidado
e|---------------------|
b|---------------------|
g|---------------------|
D|--------4------------|
A|--1-2-4------—-------|
E|---------------------|

BF#
No respondes al llamado
e|---------------------|
b|---------------------|
g|--3p1---1-3----------|
D|------3--------------|
A|-------------—-------|
E|---------------------|

D#m A#m
No heches tierra a la palabra
e|---------------------|
b|---------------------|
g|---------------------|
D|--------4------------|
A|--1-2-4------—-------|E|---------------------|

B C#
Me condenas a la nada, no me entierres sin perdón.

D#m A#m
Mira corazón que es el engaño
B F#m
Se revierte y hace daño, se revienta en el aire
A#m
Como pompas de jabón


D#m A#m
Como pude haberte yo herido
BF#
Engañarte y ofendido? Alma gemela no te olvido
A#m
Aunque me arranque el corazón


PRECORO:

Gm# C# F# Am#
Haaay!!!el rencor que nos envenena nos hace daño
Gm# C# F#
aunque no regreses corazón has de perdonarme

CORO

B
El verdadero amor perdona
BmF#
No abandona, no se quiebra
D#m
No aprisiona
B C#
No revienta como pompas de jabón.


Intro:D#m,A#m,B,F#

Aahhaaaahhhh aaahhhh
e|---------------------|----------------------|
b|---------------------|----------------------|
g|--3------------------|----------------------|
D|----1-—1-3-4-3-------|--------4-------------|A|-------------—--1----|--1-2-4---2-----------|
E|---------------------|----------------------|
Aaaahhhh ahhahahhahh
e|---------------------|----------------------|
b|---------------------|----------------------|
g|------4-3------------|---3p1---1-3----------|
D|--4-6-----4----------|-------3--------------|
A|-------------—-------|----------------------|E|---------------------|----------------------|



D#m A#m
Un error es algo humano
B F#
No justifico la traición
D#m A#m
Los amantes verdaderos se comprenden
B F#
Se aman y se olvidan del rencor

e|---------------------|
b|---------------------|
g|--3p1---1-3----------|
D|------3--------------|
A|-------------—-------|...
tracking img