Introduccion

Solo disponible en BuenasTareas
  • Páginas : 8 (1755 palabras )
  • Descarga(s) : 10
  • Publicado : 5 de abril de 2010
Leer documento completo
Vista previa del texto
| |
| |
|Essa intro logo abaixo é tocada 2 x|
|Afinação: e-B-G-D-A-E |
|Use somente palhetada p/ baixo|
| |
||------------------------------------------------------------ ||
||------------------------------------------------------------ | |
||-9 9 8 8 6 6 4 - ---- ||
||-9 9 8 8 6 6 4 - ---- | |
||-7 7 6 6 4 4 2 - ---- | |||------------------------------------------------------------ | |
|Depois toca |
||
||------------------------------------------------------------ | |
||----------------------------------------------------------- ||
||------------------------------4---------------------------- | |
||-2--------------------------- 2---------------------------- ||
||-0--------------------------- 2--2--2--2--2--2--2--2--- | |
||-0- 0- 0- 0- 0- 0- 0-------------------------------------- | |
||
||----------------------------------------------------------- | |
||------------------------------------------------------------ |...
tracking img