Ja ja

Solo disponible en BuenasTareas
  • Páginas : 7 (1536 palabras )
  • Descarga(s) : 0
  • Publicado : 28 de agosto de 2012
Leer documento completo
Vista previa del texto
Bm F#
On a dark desert highway, cool wind in my hair
A E
Warm smell of colitas rising up through the air
G D
Up ahead in the distance, I saw a shimmering light
Em
My head grew heavy and my sightgrew dim
F#
I had to stop for the night

Bm F#
There she stood in the doorway; I heard the mission bell
A E
And I was thinking to myself this could be heaven or this could be hellG D
Then she lit up a candle, and she showed me the way
Em F#
There were voices down the corridor, I thought I heard them sayG D
Welcome to the Hotel California.
Em Bm7
Such a lovely place, such a lovely face
G D
Plenty of room at the Hotel California
Em F#
Any time ofyear (any time of year) you can find it here




----> Essa é a base durante toda a música

Agora a música com todos os solos da versão acústica...

Bm9 A/B|-9-------------------------------------|-X-------------------------------|
|-7---------------2-3-5-7-7/8\7-5/7~~~~-|-10-------3-2--------------------|
|-7--4-4h6p4p3-4------------------------|-9---2-4------0-2-2h4-2----------|
|-7-------------------------------------|-11----------------------4/2-----||-9-------------------------------------|-12--------------------------5/7-|
|-7-------------------------------------|-9-------------------------------|



Em ( várias vezes ) F#7
-7--------0------0------0------0|---7p0---10p0-|-----7-6-7-9-10-9-10-12/14-2|-8------0------0------0------0--|--8-----8-----|---8-----------------------2|
-9----0------2------4------7----|-9-----9------|-9-------------------------3|
-9--2------4------5------9------|--------------|-----------------2----------|
-X------------------------------|--------------|---------------4------------|-X------------------------------|--------------|-------------2--------------|

Agora entra somente a percussão...e depois...

Bm9 A/B
|-9----2h3p2---2-2---2---|-------------|-X-----------------------
|-7----------5-----5---3-|-5p3---3-----|-10------3p2---2--2------|-7--4-------------------|-----4---2/4-|-9---2-4-----4------2--4-
|-7----------------------|-------------|-11----------------------
|-9----------------------|-------------|-12----------------------
|-7----------------------|-------------|-9-----------------------

Em...
tracking img