Kryptonite

Solo disponible en BuenasTareas
  • Páginas : 10 (2319 palabras )
  • Descarga(s) : 0
  • Publicado : 12 de enero de 2011
Leer documento completo
Vista previa del texto
Kryptonite

Repita - 3x Bm G Asus2
e|--------------------------------------------------------------------
B|--------------3-----------------------------------------------------------0---|
G|*---------4--------4---------0--------------------0-----------------2--------*|
D|*-----4-----------------4-------------------0-----------------2-----A|---2-----------------------------------2----------------0-----------
E|----------------------------------3---------------------------------

Bm G A/D
e|--------------------------------------------------------------0-----
B|--------------3-----------------------------------------------------2---------|
G|----------4--------4---------0--------------------0-----------------------2---|D|------4-----------------4-------------------0-----------------------
A|---2-----------------------------------2----------------0-----------
E|----------------------------------3---------------------------------

Verso 1

Guitarra 1 (S/ Dist.)
Guitarra 2 (S/ Dist.)
Bm G Asus2
e|--------------------------------------------------------------------B|--------------3-----------------------------------------------------------0---|
G|----------4--------4---------0--------------------0-----------------2---------|
D|------4-----------------4-------------------0-----------------2-----
A|---2-----------------------------------2----------------0-----------
E|----------------------------------3---------------------------------
I took a walk around the world to Ease mytroubled mind
Bm G Asus2
e|--------------------------------------------------------------------
B|--------------3-----------------------------------------------------------0---|
G|----------4--------4---------0--------------------0-----------------2---------|
D|------4-----------------4-------------------0-----------------2-----A|---2-----------------------------------2----------------0-----------
E|----------------------------------3---------------------------------
I left my body laying somewhere In the sands of time

Guitarra 2 (Dist.)
Bm G Asus2
e|--------------------------------------------------------------------
B|--------------3-----------------------------------------------------------0---|G|----------4--------4---------0--------------------0-----------------2---------|
D|------4-----------------4-------------------0-----------------2-----
A|---2-----------------------------------2----------------0-----------
E|----------------------------------3---------------------------------
I watched the world float to the dark Side of the moon

Bm G A/De|--------------------------------------------------------------0-----
B|--------------3-----------------------------------------------------2---------|
G|----------4--------4---------0--------------------0----------------------2---|
D|------4-----------------4-------------------0-----------------------
A|---2-----------------------------------2----------------0-----------E|----------------------------------3---------------------------------
I feel there is nothing I can do_______

Repitir 2x

Guitarra 1 (S/ Dist.)
Bm Bm G Asus2
e|---2--2--x--x--2--2--x--x--3--3--x--x--0--0--x--x---|
B|---3--3--x--x--3--3--x--x--3--3--x--x--0--0--x--x---|
G|---4--4--x--x--4--4--x--x--0--0--x--x--2--2--x--x---|D|---4--4--x--x--4--4--x--x--0--0--x--x--2--2--x--x---|
A|---2--2--x--x--2--2--x--x--2--2--x--x--0--0--x--x---|
E|---2--2--x--x--2--2--x--x--3--3--x--x--0--0--x--x---|

Guitarra 2 (Dist.) - Faça isto 2x
B5
e|----------------------------------------------------|
B|----------------------------------------------------|
G|---4------------(4)---------(4)---------(4)---------|
D|---4------------(4)---------(4)---------(4)---------|...
tracking img