La la

Solo disponible en BuenasTareas
  • Páginas : 5 (1136 palabras )
  • Descarga(s) : 0
  • Publicado : 19 de agosto de 2012
Leer documento completo
Vista previa del texto
E-----------------------------------------------------------------------
B-----------------------------------------------------------------------
G--------------------------------------9--11h12p11--9-------------------
D---8--9--11--8--9--11--12--9--11--12------------------12--11--9--11----A-----------------------------------------------------------------------
E-----------------------------------------------------------------------E-----------------------------------------------------------------------
B-----------------------------------------------------------------------
G------------------9----------9--11h12p11--10--11--10--11---------------
D---12--9--11--12-----11--12-------------------------------12--12-------
A-----------------------------------------------------------------------E-----------------------------------------------------------------------



E-----------------------------------------------------------------------B-----------------------------------------------------------------------
G---------------13--13^--11--10--11-------------------------------------
D---12--12--12-----------------------12--11--12-------------------------
A-----------------------------------------------------------------------E-----------------------------------------------------------------------



E-----------------------------------------------------------------------B-----------------------------------------------------------------------
G--------------------------------------9--11h12p11--9-------------------
D---8--9--11--8--9--11--12--9--11--12------------------12--11--9--11--12
A-----------------------------------------------------------------------
E-----------------------------------------------------------------------E-----------------------------------------------------------------------
B-----------------------------------------------------------------------G--------------9----------9--11h12p11--10--11--10--11-------------------
D---9--11--12-----11--12-------------------------------12--12--12-------
A-----------------------------------------------------------------------
E-----------------------------------------------------------------------E-----------------------------------------------------------------------
B-----------------------------------------------------------------------
G-----------13--13^--11--10--11-----------------------------------------...
tracking img