La tablatura

Solo disponible en BuenasTareas
  • Páginas : 5 (1110 palabras )
  • Descarga(s) : 4
  • Publicado : 10 de marzo de 2010
Leer documento completo
Vista previa del texto
La Tablatura - Estructura y Pisadas

La tablatura es un método de representar la música por medio de diagramas que muestran al intérprete dónde poner los dedos en el diapasón del instrumento, en lugar de señalar el sonido y el ritmo que se producen como ocurre en la partitura.

Estructura de la Tablatura

Está integrada por 6 líneas que representa las seis cuerdas de la Guitarra. La líneade arriba representa la primera cuerda, o la más delgada de la Guitarra, mientras que la línea de abajo representa la sexta, o la más gruesa de la Guitarra. Una línea vertical indica el principio o final de un compás y la doble línea vertical indica el final de la tablatura. Como se puede ver en el ejemplo:
1ra. cuerda e |----------------------------------||
2da. cuerda B|----------------------------------||
3ra. cuerda G |----------------------------------||
4ta. cuerda D |----------------------------------||
5ta. cuerda A |----------------------------------||
6ta. cuerda E |----------------------------------||
\
Esta es la cuerda más gruesa

Las letras e, B,G, D, A y E indican el nombre de la nota que produce la cuerda tocada al aire, de la más delgada a la más gruesa. La 'e' minúscula es la nota de Mi pero más aguda (dos octavas más). A veces se ven éstas letras en las tablaturas y otras veces no. La razón de que no las lleva es que esta es la afinación estándar y se da por entendido que es de esta forma.

Las Pisadas

Los números queencontremos sobre cada línea indican el espacio en donde se debe pisar la cuerda con los dedos de la mano izquierda, y tocarla con la mano derecha. Por ejemplo, si el número 3 ésta sobre la 2da. línea, significa que debemos tocar (hacer sonar) la 2da. cuerda pisada en el 3er. espacio (o traste). El "0" (cero) indica que se debe tocar la cuerda al aire (sin pisarla).|-----------------------------------------||
|-------3---------------------------------||
|-----------------------------------------||
|-----------------------------------------||
|-----------------------------------------||
|-----------------------------------------||

Cuando se presente un número fuera de la tablatura(generalmente abajo), en este caso el 2, indica con cual dedo de la mano izquierda debe ser presionada la posición que te indica en la tablatura.

El número 1 indica el dedo índice de la mano izquierda.
El número 2 indica el dedo medio de la mano izquierda.
El número 3 indica el dedo anular de la mano izquierda.
El número 4 indica el dedo meñique de la mano izquierda.

Cuando se quiere que dos omás cuerdas suenen al mismo tiempo se ponen los números en vertical, de ésta forma:
|-----------------------------------------||
|-----------1-----------------------------||
|-----------0-----------------------------||
|-----------2-----------------------------||
|-----------3-----------------------------|||-----------------------------------------||

La siguiente tablatura te indica que debes tocar una secuencia de notas, en esta caso la escala de Do mayor. Las notas son Do, Re, Mi, Fa, Sol, La, Si y Do (C, D, E, F, G, A, B, C):
|-----------------------------------------||
|------------------------------0---1------|||----------------------0---2--------------||
|----------0---2---3----------------------||
|------3----------------------------------||
|-----------------------------------------||

Cuando se presentan números fuera de la tablatura (generalmente abajo), indican con que dedos de la mano izquierda deben ser presionadas las posiciones que te indica...
tracking img