Laboral

Solo disponible en BuenasTareas
  • Páginas : 8 (1971 palabras )
  • Descarga(s) : 0
  • Publicado : 25 de mayo de 2011
Leer documento completo
Vista previa del texto
INTRO -with motorcycles
d-3-----3-----3-----3^-
g-3-----3-----3-----3^-
c-0-----0-----0-----0^-
f-0-----0-----0-----0^-
a----------------------
d-3-----3-----3-----3^-
NH NHd-----------------------------------------------------------------------------
g-----------------------------------------------------------------------------
c-12-/-/-/--~~~--/-/-/-/-/-/-----7-/-/-/-/-/-/-/-/-/-/---^-
f-----------------------------------------------------------------------------
a-----------------------------------------------------------------------------d-----------------------------------------------------------------------------
PM
d---------------------------------------------------------------------------
g---------------------------------------------------------------------------c------------------------9-------9------------------------------------------
f------------------------9-------9------------------------2--2-------2------
a-5/7\5----4/5--4--------7-------7---5-/7\5-----4/5\4-----2--2-------2------
d-3/5\3--0-2/3--2---0-0-----0-0------3-/5\3---0-2/3\2--0--------3-4-----3-4-
PMd-----------------------------------------------------------------------------
g-----------------------------------------------------------------------------
c------------------------9------9---------------------------------------------
f------------------------9------9------------------------2--2-------2---------a-5-/7\5-----4/5\4-------7------7---5-/7\5-----4/5\4-----2--2-------2---------
d-3-/5\3--0--2/3\2--0-0----0-0------3-/5\3--0--2/3\2--0--------3-4-----0-3-4--
VERSE
d-------------------------------------------------------
g-------------------------------------------------------
c---------------7--/-------------------------9--/-----f-2-------------7----------2-----------2------9---------
a-0------------------------0-----------0----------------
d------------------------------3----------------------3-

d----------------------------------------------
g----------------------------------------------c-----------7------------------7\6/7\6/7\6/7\6-
f--2--------7--------2-/----------------------
a--0-----------------0---------5\4/5\4/5\4/5\4-
d---------------------------3------------------
CHORUS PM
d-------------------------------------------------------------------------g-------------------------------------------------------------------------
c------------------------9------9-----------------------------------------
f------------------------9------9-------------------------2--2------2-----
a-5/7\5-----4/5\4--------7------7----5-/7\5-----4/5\4-----2--2------2-----d-3/5\3--0--2/3\2---0-0----0-0-------3-/5\3--0--2/3\2--0-------3-4----3-4-
PM
d------------------------------------------------------------------------
g------------------------------------------------------------------------
c-------------------------2-------2~--------------------------2--2--2----...
tracking img