Lagrimas de adoracion

Solo disponible en BuenasTareas
  • Páginas : 2 (260 palabras )
  • Descarga(s) : 0
  • Publicado : 16 de enero de 2012
Leer documento completo
Vista previa del texto
INTRO: |A E A| |E D| |D E| |E|

e|----------------------------|
B|----------------------------|
G|----------------------------|
D|-11---11-12-14--12-11----11-|
A|----------------------14----|E|----------------------------|

e|-----------------------|
B|-----------------------|
G|-----------------------|
D|-11-12-14--12-11----12-|
A|-----------------14----|E|-----------------------|

e|--------------------|
B|--------------------|
G|--------------------|
D|-12-14-15--12-15-14-|
A|--------------------|
E|--------------------|

e|-------------------------|B|-------------------------|
G|-------------------------|
D|-14-12-11----------------|
A|----------14-12-11-12-14-|
E|-------------------------|

A E F#m D
eres el motivo de mivida Jesús
A E F#m D
mi alma anhela alabarte oh Dios
A E F#m D
mis labios pronuncian tu nombre con tanta pasion
A Esanaste mi corazón

D E
todo lo que tengo hoy
F#m D
todo lo que soy
A E
lo ofresco en sacrificio a tus pies
D
mi señor:::::::::CORO::::::::

A E F#m D
lagrimas de adoracion
A E
brotan de mi corazon
F#m D A E
al borde de tu Trono las ofrezco señor
F#m ED A
como ofrenda de amor

:::::::::SOLO::::::::

e|---------------------------------|
B|-14b-14b-----------------14b-----|
G|-16b-16b-16-14-16---16-----16-14-|D|---------------------------------|
A|---------------------------------|
E|---------------------------------|

e|----------------------------------|
B|----------------------------------|
G|-14-------------------------------|D|----16-14-16-14-------------------|
A|----------------16-14-16-14-------|
E|----------------------------16/17-|

e|------------------------------|
B|----------------18b-----------|...
tracking img