Led zeppelin

Solo disponible en BuenasTareas
  • Páginas : 7 (1575 palabras )
  • Descarga(s) : 0
  • Publicado : 21 de octubre de 2010
Leer documento completo
Vista previa del texto
LED ZEPPELIN
Communication Breakdown


Standard Tuning

G|----------------|----------------|----------------|----------------|
D|----------------|----------------|----------------|----------------|A|----------------|----------------|----------------|--5---------5---|
E|----------------|----------------|----------------|--------5-------|


G|----------------|----------------|----------------|----------------|
D|----------------|----------------|----------------|----------------|A|7-7-7-7-7-7-7-7-|7-5---------5---|7-7-7-7-7-7-7-7-|7-5---------5---|
E|----------------|--------5-------|----------------|--------5-------|

G|----------------|----------------|----------------|----------------|
D|----------------|----------------|----------------|----------------|
A|7-7-7-7-7-7-7-7-|7-5---5-----5---|7-7-7-7-7-7-7-7-|--5---5-----5---|E|----------------|--------5-------|----------------|--------5-------| 4X
Hey girl, stop what you're doin'.....

G|--------------2-|--2-2-2---------|--------------2-|----------------|
D|----------2-4---|--------4-2-----|----------2-4---|--4---2---------|A|0-0-0-3-4-------|------------4-0-|--0-0-3-4-------|----------4-2-0-|
E|----------------|----------------|----------------|----------------|
Communication Breakdown....

G|--------4-2-----|------------2-4-|--2-------------|----------------|
D|------------4---|--2---3---4-----|------4---1-2---|----------------|A|2-2-2-2-------2-|----------------|--------------2-|--2-2---2---2---|
E|----------------|----------------|----------------|----------------|

G|----------------|----------------|----------------|----------------|
D|----------------|----------------|----------------|----------------|A|7-7-7-7-7-7-7-7-|7-5---------5---|7-7-7-7-7-7-7-7-|7-5---------5---|
E|----------------|--------5-------|----------------|--------5-------| 5X

G|--------------2-|--2-2-2---------|--------------2-|--0-------------|
D|----------2-4---|--------4-2-----|----------2-4---|------4---2-----|A|0-0-0-3-4-------|------------4-0-|--0-0-3-4-------|--------------4-|
E|----------------|----------------|----------------|----------------|
Communication Breakdown....

G|--4-----2-------|------------2-4-|--2-------------|----------------|
D|----------4-2---|----------4-----|------4---2-----|----------------|A|2-------------2-|--2---6---------|------------5-2-|--2-2-2-2---2---|
E|----------------|----------------|----------------|----------------|

G|----------------|----------------|
D|----------------|----------------|
A|7---------------|----------------|
E|----------------|----------------|Guitar Solo
G|----------------|----------------|----------------|----------------|
D|----------------|----------------|----------------|----------------|
A|7-7-7-7-7-7-7-7-|7-5---------5---|7-7-7-7-7-7-7-7-|7-5---------5---|
E|----------------|--------5-------|----------------|--------5-------| 4X...
tracking img