Libros

Solo disponible en BuenasTareas
  • Páginas : 3 (685 palabras )
  • Descarga(s) : 0
  • Publicado : 6 de septiembre de 2012
Leer documento completo
Vista previa del texto
For Whom the Bell Tolls
lallo (LaLo)


Riff 1:

E|-----------------|B|-----------------|
G|-----------------| (12x)
D|-4—-4---4--4---2-|
A|-4-—4---4--4---2-|
E|-2—-2---2--2---0-|pm---------



E|-----------------|
B|-----------------|
G|-----------------|D|-4—-4------------|
A|-4-—4------------|
E|-2—-2------------|
pm--


Riff 2:E|-----------------|-----------------|
B|-----------------|-----------------|
G|-----------------|-----------------|D|-----------------|--------------2--|
A|-2-5-4-3-2-5-4-3-|2-5-4-1-2-4-5-0--|
E|-0-3-2-1-0-3-2-1-|0-3-2-1-0-2-3----|
pm------------- -------------E|-----------------|-----------------|
B|-----------------|-----------------|G|-----------------|-----------------|
D|-----------------|--------------4--|
A|-2-5-4-3-2-5-4-3-|2-5-4-1-2-4-5-2--|
E|-0-3-2-1-0-3-2-1-|0-3-2-1-0-2-3----|pm------------- -------------


Solo:

E|---------------------|-------------------|B|---------------------|-------------------|
G|--12-9-11----9-11----|--12-9-11----9-11--| (15x)
D|----------12---------|----------12-------|...
tracking img