Los 3 cantares del mio cid

Solo disponible en BuenasTareas
  • Páginas : 3 (586 palabras )
  • Descarga(s) : 0
  • Publicado : 4 de noviembre de 2010
Leer documento completo
Vista previa del texto
Intro:
B-3---3---3----------------------
G---2---2---2-0---0---0---0-2-0--
D-0-------------4---4---4-------4A-----------------5--------------

B-3---3---3----------------------
G---2---2---2-0---0---0---0-2-0--
D---------------4---4---4-------4A-2---------------2--------------

B-3---3---3----------------------
G---2---2---2-0---0---0---0-2-0--D---------------4---4---4-------4
A--------------------------------
E-3---------------3--------------

B-3---3---3----------------------G---2---2---2-0---0---0---0-2-0--
D---------------4---4---4-------4
A-0---------------0--------------

ESTA PARTE SE TOCA SOLO CON EL INTROWell I was there on the day they sold the cars for the Queen,
And when the lights all went out we watched our lives on the screen
I hate the endingmyself, but it started with an all right scene


ESTO YA ES LA ROLA
D
It was the roar ofthe crowd that gave me heartache to sing.
Bm
It was a lie when they smiled and said ?you won't feel a thing.?
GAnd as we ran from the cops, we laughed too hard,it would
A aqui le meten el bajo de A#
stingBm E
If I'm so wrong {so wrong, so wrong}
A D D/C#
How can you...
tracking img