Malabare

Solo disponible en BuenasTareas
  • Páginas : 5 (1201 palabras )
  • Descarga(s) : 0
  • Publicado : 26 de septiembre de 2010
Leer documento completo
Vista previa del texto
Un amor violento
Intro :

A Bm E7
----------5--2------------------------2--0-----------
-------2--------2--------3--2------3-----------------
------2-----------------4---------1------------------
-----2-----------------4---------2-------------------
--0-----------------2--------------------------------
--------------------------------0--------------------LA Sim MI7
Cuando por primera vez te vi
LA Sim MI7
Supe que el cielo era para ti y para mi
LA Sim MI7
Y para ti y para mi

LA – Sim – MI7

LA Sim MI7
Nunca más podré dormir
LA Sim MI7 LA Sim MI7
Nunca más podré soñar con alguien que no seas tu

LA – Sim – MI7

Do#mFa#m
Gastaré toda mi vida en comprar la tuya
Do#m FA#m SI LA
Gastaré toda mi vida y más...más
Sim MI7
Mucho más mucho más

LA – Sim – MI7

El amor tendrá que esperar
Un buen rato para descansar de tu y de mi
De tu y de mi

El amor tendrá que esperar
Un buen rato para descansar de tu y de mi
De tu y de mi

Gastaré toda mi vida en comprar la tuyaGastaré toda mi vida y más, y más...

SOLO

-799--9--9--9--9---12-12--555-7-99999-14-1212-10-12-14-12-----------------------
------10-10-10-10--14-14--777-9-------------------------------------------------
--------------------------------------------------------------------------------
----------------------------------------------------------------------------------------------------------------------------------------------------------------
--------------------------------------------------------------------------------

-9--9--12-10-10-9--7-5-77-55--2020202-0422-00245442202-024544220202452----------
-10-10-14-12-12-10-9-7-99-77------------------------------------------320-------
----------------------------------------------------------------------------------------------------------------------------------------------------------------
--------------------------------------------------------------------------------
--------------------------------------------------------------------------------

--------------------------------------------------------------------------------
-5545454-7767676------------------------------------------------------------------------------------------------------------------------------------------------
--------------------------------------------------------------------------------
--------------------------------------------------------------------------------
--------------------------------------------------------------------------------

Gastaré toda mi vida
En comprar la tuya
Gastaré toda mi vida y más
Ymás, y más...

Por que un amor violento
Nos deslumbró
Un amor violento nos fulminó
Un amor pulento nos deslumbró
Un amor pulento nos fulminó

----------------½--------3------------------------------------------------------
-999777---------½--esto--2-----o-esto--8---------------------------------------
-------9997776--½--------2-------------6--------------------------------------------------------½--------2-------------7----------------------------------------
----------------½---------------------------------------------------------------
----------------½---------------------------------------------------------------

Dejate caer

Bm
Dejate caer
A
Dejate caer
Em F#
La tierra es al reves
Em C
La sangre es amarilla
BmDejate caer

F# Em
El viento ya no sopla
F# Em
La boca bien cerrada
F# Em
Amarrate los pies
Dm
Piensa en tu madre
C Bm
Y dejate caer

Mira al cielo ceder
Y a la tierra despues
Vuelve a creer
La sangre es amarilla
Dejate caer

Las olas ya no mojan
La ira de las rocas
Amarrame otra vez
Un beso a mi madre
Y dejame caer

Cm -...
tracking img